PrimaNota.ru - самый крупный в мире бесплатный архив песенных текстов, аккордов, табулатур и нот


The Spinto Band - Summer Grof - таба, видео

Регистрация Запомнить меня
Войти через:  Facebook Google Twitter Vk Yandex Mail.ru

The Spinto Band - Summer Grof - таба, видео

Печатать
Просмотров: 85
Авторы: The Spinto Band

Spinto Band
Summer Grof
Moonwink

(This tab has most of the Guitar and Bass Parts and some bitlets of others. Spinto
Band's Lyrics are sometimes difficult to understand but I think I have transcribed them
accurately. If anyone wants to collaborate either by making suggestions or adding to the 
tab feel free. although this is the internet so someone probably wouldn't care whether 
I said
they should or not. anyway enjoy the tab if that is what you are wont to do.)

I won't lie I thought of you when weren't around
Though I thought there was no thinkin' involved
What went on in that house
Who got on in that house
Who got off was never resolved

I won't lie, I won't lie, I won't lie, I won't lie
I won't lie to your face anymore
So Goodbye So Goodbye So Goodbye So Goodbye So Goodbye So Goodbye So Goodbye

With a name like Janine she renounced gasoline
So to biel street she always did walk
And when biel street ran dry
She licked hand sanitizer
And ran a few times round the block

So Goodbye So Goodbye So Goodbye So Goodbye So Goodbye So Goodbye So Goodbye
I won't lie, I won't lie, I won't lie, I won't lie, I won't lie,
I won't lie ‘cept this time

I know that you can see farther I fear than I but I still try
I thought I'd try

I won't lie I thought of you when weren't around
Though I thought there was no thinkin' involved
What went on in that house
What went wrong with that house
I got out what I got what I get what I got

I won't lie, I won't lie, I won't lie, I won't lie
I won't lie to your face anymore
So Goodbye So Goodbye So Goodbye So Goodbye So Goodbye So Goodbye So Goodbye

Keyboard
[Intro]
A


Bass

[Intro/Main Verse/Solo Part 1]
G----------------------------------------------------------------------------------------|
D---------------------------------------10-10-10-10-10-10-10-10—12-12-12—14-14-14—12-12\-|
A-----------------7-7-7--10-10-10-10-10--------------------------------------------------|
E—8-8-8-8-8-8-8-8------------------------------------------------------------------------|

[Chorus]
G-------------------------------------------------------------------|
D-------------------------------------------------------------------|
A-7-7-7-7-8-8-8-8-7-7-7-7-5-5-5-5-3-3-3-3-3-3-2-2-3-3-3-3-3-3-2-2-3-|
E-------------------------------------------------------------------|


Guitar Main


[Intro/Main Verse]
E----------|
B-1-0-1-0--|
G-0-0-2-2--|
D-2-2-3-3--|
A-3-3-3-3--|
E-----1-1—-|

[Bridge]
Dm Am F G

C F

“I know that you can see farther…”
E-1-0-1-3-|
B-3-1-1-3-|
G-2-2-2-0-|
D-0-2-3-0-|
A---0-3-2-|
E-----1-3-|

“I'll still try…”
E-0-0-1-1-(13)Let Ring-|
B-1-0-1----------------|
G-0-0-2----------------|
D-2-2-3----------------|
A-3-3-3----------------|
E-----1----------------|


Guitar Lead

[Chorus]
 “I won't lie…”
E-12-13-15-12-13-15-12-13-15-12-13-15-12-13-15-|
B----------------------------------------------|
G----------------------------------------------|
D----------------------------------------------|
A----------------------------------------------|
E----------------------------------------------|


[Solo]
E--------------------------------8—-8—-8-—8-7h8-8-8-8-7-6-5-|
B--------8 8 8 8----8—-8—-8—-8-10-10-10-10------------------|
G---9b--9-9-9-9-9h10-10-10-10-------------------------------|
D-7b--9b----------------------------------------------------|
A-----------------------------------------------------------|
E-----------------------------------------------------------|

E-5-5-6-7-8-10-8-7---------------------------------------------|
B------------------10-8--------*-*-*-*-*-*-*-------------------|
G-----------------------10-9-8-7-5-4-2-4-5-6-7-7/5-5/4-4\5-6-7-|
D--------------------------------------------------------------|
A--------------------------------------------------------------|
E--------------------------------------------------------------|
[*=Triplet]
Добавлено: 02.03.2012
Другие материалы по этой песне:
  • Аккорды и текст

Страница создана 02.03.2012
http://primanota.ru/the-spinto-band/summer-grof-chords.htm
Привет, Гость.
Предлагаем пройти революционный курс по гитаре.
Подарок от PrimaNota.Ru, забирай!