PrimaNota.ru - самый крупный в мире бесплатный архив песенных текстов, аккордов, табулатур и нот


The Speed Of Sound In Seawater - The Huge Wheel - таба, видео

Регистрация Запомнить меня
Войти через:  Facebook Google Twitter Vk Yandex Mail.ru

The Speed Of Sound In Seawater - The Huge Wheel - таба, видео

Печатать
Просмотров: 76
This is Damien's backyard version, not the acoustic ep version, so it's only one guitar.

Capo 4th fret

Verse

e|-------------------0h2~---------------2/5\2-2-------|
B|---------------0h3~-----------------3---------3--0--|
G|---------0h2/4~-----------------2h4-----------------|
D|-------0~-----------------0-2/4---------------------|
A|---0h2------------------5---------------------------|
E|-3--------------------------------------------------|

e|---2p0-------------------0h2-----------------------------------|
B|---0-----3p0---0h2---2h3-----3-----7---5---3-------------------|
G|---------0-----0-----0---------0---0---0---0-----------0~------|
D|-----------------------------------------------------0~--------|
A|---------------------------------5---4---2-------0h2-----------|
E|-3-----3-----3-----3-------------------------0h3---------------|

Chorus

e|----2--2/5\2p0------------2---7-5-2-0-------------0-2/5\2p0-----------------2---2---|
B|----0--0-------3p2p0------2---7-5-2-0-----------0~----------3p2p0-------2----2---2--|
G|----0--0-------------2----2---7-6-2-0---------0~------------------2----2------2---2-|
D|----0--0---------------0----0---------------0~------------------------4--------4---4|
A|----2--2--------------------------------0h2-------------------------5----5~---------|
E|-3--3--3------------------------------3---------------------------------------------|

e|----2--2/5\2p0------------2---7-5-2-0-------------0-2/5\2p0------------------2-|
B|----0--0-------3p2p0------2---7-5-2-0-----------0~----------3p2p0-------2------|
G|----0--0-------------2----2---7-6-2-0---------0~------------------2----2-------|
D|-------0---------------0----0---------------0~------------------------4--------|
A|-------2--------------------------------0h2-------------------------5-----5~---|
E|-3-----3------------------------------3----------------------------------------|

After Chorus 1

e|-------------------0h2~---2---5-3-2-------------------2/5\3p2--------2---2h3p2-----|
B|---------------0h3~------3----------3-0-------------3---------3----3---3-------3---|
G|---------0h2/4~---------4----0~-----------------2h4--------------0~--------------0-|
D|-------0~-------------------0~------------0-2\4------------------------------------|
A|---0h2----------------------------------5------------------------------------------|
E|-3---------------------------------------------------------------------------------|

e|---2p0-------------------0h2----------------------------------------------------|
B|---0-----3p0---0h2---2h3-----3-------------7---5---3----------------------------|
G|---------0-----0-----0----------0-0-0-0----0---0---0-----------0~-------------0-|
D|-------------------------------------------------------------0~---------0h2\4---|
A|-----------------------------------------5---4---2-------0h2--------0h2---------|
E|-3-----3-----3-----3---------------------------------0h3----------3-------------|

After Chorus 2

e|-----------------------------------------0h2-5-|
B|-------------------------------------0h3-------|
G|--------------0----------------0h2h4-----------|
D|--------0h2\4---4-0------0h2h4-----------------|
A|----0h2-------------0-5------------------------|
E|-3---------------------------------------------|

e|--------------------------------------------------------|
B|-----------------------------------3--------------------|
G|--------------0---------------0h2h4--4p2p0--------------|
D|--------0h2\4---4-------0h2h4------------4p2p0----------|
A|----0h2-----------0-0-5------------------------5p2p0----|
E|-3---------------------------------------------------0--|

e|------------------------------------------0h2-5-|
B|--------------------------------------0h3-------|
G|---------------0----------------0h2h4-----------|
D|---------0h2\4---4-0------0h2h4-----------------|
A|-----0h2-------------0-5------------------------|
E|-3-3--------------------------------------------|

e|-----------------------------------------------------|
B|------------------------------------3----------------|
G|--------------0---------------0h2h4------------------|
D|--------0h2\4---4-0-----0h2h4------------------------|
A|----0h2-------------0-5------------------------------|
E|-3---------------------------------------------------|

Change

e|-----------------7---5---3---2-|
B|---5-------7-----7---5---3---2-|
G|---4-------6-----7---6---4---2-|
D|---5-------7-------------------|
A|---------------5---4---2---0---|
E|-3---3\5-5---5-----------------|

Post-change

e|---2---2---2---2---3---3---3---3---5---3---2---3---0---0--------|
B|----------------------------------------------------------------|
G|----------------------------------------------------------------|
D|----------------------------------------------------------------|
A|-0---0---0---0---2---2---2---2---4---2---0---2---0---0----------|
E|----------------------------------------------------------------|

Post-change Revival

e|------------------0~|  |-------------0h2-|
B|---------------0h3--|  |----------0h3----|
G|----------0h2h4-----|  |-------0h2-------|
D|-----0h2\4----------|  |--0h2h4----------|
A|--0h2---------------|  |-5---------------|
E|-3------------------|x2|-----------------|x2

Final Chorus

e|-2--2--2/5\2p0------------2---7-5-2-0-------------0-2/5\2p0-----------------2---2---|
B|-0--0--0-------3p2p0------2---7-5-2-0-----------0~----------3p2p0-------2----2---2--|
G|-0--0--0-------------2----2---7-6-2-0---------0~------------------2----2------2---2-|
D|-0--0--0---------------0----0---------------0~------------------------4--------4---4|
A|-2--2--2--------------------------------0h2-------------------------5----5~---------|
E|-3--3--3------------------------------3---------------------------------------------|

e|----2--2/5\2p0------------2---7-5-2-0-------------0-2/5\2p0------------------2---2---|
B|----0--0-------3p2p0------2---7-5-2-0-----------0~----------3p2p0-------2------2-3---|
G|----0--0-------------2----2---7-6-2-0---------0~------------------2----2---------2---|
D|-------0---------------0----0---------------0~------------------------4----------4---|
A|-------2--------------------------------0h2-------------------------5-----5~-----5---|
E|-3-----3------------------------------3----------------------------------------------|


- I tried to add rhythm and it didn't work out, so you're gonna have to follow the song.
- Any note preceded by a squiggly line should be sustained (I only did it for the 
less obvious notes).
- Email corrections, insults, etc. to paultewolde@yahoo.com.
- Rate, comment, and subscribe for more videos like this one.

http://thespeedofsoundinseawater.tumblr.com
Добавлено: 10.08.2013
Другие материалы по этой песне:
  • Аккорды и текст

Страница создана 10.08.2013
http://primanota.ru/the-speed-of-sound-in-seawater/the-huge-wheel-chords.htm
Привет, Гость.
Предлагаем пройти революционный курс по гитаре.
Подарок от PrimaNota.Ru, забирай!