PrimaNota.ru - самый крупный в мире бесплатный архив песенных текстов, аккордов, табулатур и нот


The Speaks - Choose - таба, видео

Регистрация Запомнить меня
Войти через:  Facebook Google Twitter Vk Yandex Mail.ru

The Speaks - Choose - таба, видео

Печатать
Просмотров: 110
Song : Choose
Band : The Speak
Album : Life's A Joke

||=================================================||
|| Ear Transcribed by : Brandon Philip Llapitan    ||
|| E-Mail Address     : brandon_rakista@yahoo.com  ||
|| Friendster E-mail  : brandon_scottstapp@yaho.com||
|| Cp No.             : 09186243757/09157906477    ||
|| Age                : 14 Yrs Old                 ||
|| Gtr 1&2 Tuning     : 14 Yrs Old                 ||
||=================================================||

Intro:
(Distorted)
e-------------------------------------------------------||
b-12~~/7~~--------17b-17~~------------------------------||
g----------16-16b----------16-16b-----------------------||
d---------------------------------18b19r18--16h1--19~~--||
a-------------------------------------------------------||
E-------------------------------------------------------||

Verse:
Gtr 1:
e-------------|---5---4h5-----------||
b-------------|-----5-----5---------||
g------9~-----|-------------||====--||
d---- -9~-----|-------------||    --||
a------7~-----|-------------||    --||
E-------------|-5-----------||    --||
                                  ||
                                  ||====(4X)
Gtr 2:(strumming not shown)       ||
       E            A             ||
e------0------|-----0-------||    --||
b------0------|-----0-------||    --||
g------1------|-----2-------||====--||
d------2------|-----2---------------||
a------2------|-----0---------------||
E-------------|---------------------||


Refrain:(listen to the song to get the timing)
Chords:(C#m—B--A)
e-----16-----16-------16----|-----14-----14--------14----|-----12-----12------12----------||
b---17--17-----17--17---17--|---14--14-----14---14---14--|---12--12-----12--12--12--------||
g-18------18-----18-------18|-16------16-----16--------16|-14------14-----14------14-(2X)-||===(3X)
d---------------------------|----------------------------|--------------------------------||
a---------------------------|----------------------------|--------------------------------||
E---------------------------|----------------------------|--------------------------------||


Chorus 1:
(Distorted)
e-------------------------------------------------------||
b-12~~/7~~--------17b-17~~------------------------------||
g----------16-16b----------16-16b-----------------------||
d---------------------------------18b19r18--16h1--19~~--||
a-------------------------------------------------------||
E-------------------------------------------------------||

Repeat Verse:
Repeat Refrain:
Then.....


Chorus 2:(strumming not shown)
    E       A       E        A(w/ distortion)
e---0---|---0---|---0---|----0----||
b---0---|---0---|---0---|----0----||
g---9---|---x---|---9---|----x----||
d---9---|---7---|---9---|----7----||
a---7---|---7---|---7---|----7----||
E-------|---5---|-------|----5----||


Solo:
Chords:(E--A)
(Distorted)
e--------------------------------------------------------------------------------------------------||
b-17~----------------------------------------------------------------------------------------------||
g----16b18r16~---------16---14-13-14--13h14p13--------------9-10-10/13~~--11b13r11-11-11h13p11-12b-||
d-------------16-14-16------------------------14~----14--/9----------------------------------------||
a--------------------------------------------------------------------------------------------------||
E------------------------------------------------/12-----------------------------------------------||

Solo Continuation....
e--------------------------------------------------------------------------------------------------||
b-17~----------------------------------------------------------------------------------------------||
g----16b18r16~---------16---14-13-14--13h14p13-----------------------------------------------------||
d-------------16-14-16------------------------14~--------------------------------------------------||
a-----------------------------------------------------/7-------------------------------------------||
E------------------------------------------------/12-----7-12/14-14/16---/17-16-14-12~-------------||

Bridge:
Chords:(C#m,B,A)
(Distorted)
e----------16---------------------------14---------------------------12--------------||
b-17--17-----17--17------------14--14-----14--14------------12--12-----12--12--------||
g---18--18-----18---(2X)then..---16--16-----16---(2X)then..---14--14-----14---(4X)---||=====(4X)
d------------------------------------------------------------------------------------||
a------------------------------------------------------------------------------------||
E------------------------------------------------------------------------------------||

Repeat Chorus 2 2X:(w/o distortion)

Tha's it!!!!

Guitar Legend:
~=Vibrato
/=Slide
b=Bend
r=Release
h=Hammer
p=Pull

“abangan nyo ang name n BRANDON PHIIP LLAPITAN sisikat din ako”
Добавлено: 02.07.2012
Другие материалы по этой песне:
  • Аккорды и текст

Страница создана 02.07.2012
http://primanota.ru/the-speaks/choose-chords.htm
Привет, Гость.
Предлагаем пройти революционный курс по гитаре.
Подарок от PrimaNota.Ru, забирай!