PrimaNota.ru - самый крупный в мире бесплатный архив песенных текстов, аккордов, табулатур и нот


The Sound - Winning - бас-таба, видео

Регистрация Запомнить меня
Войти через:  Facebook Google Twitter Vk Yandex Mail.ru

The Sound - Winning - бас-таба, видео

Печатать
Просмотров: 68
Уроки эстрадного вокала в Санкт-Петербурге
[Intro] (x4)
G|-----------------------------------------|----------------------------|
D|-----------------------------------------|----------------------------|
A|-11--11-11-11---11-11--11-11-11-11-11-11\|-7--7-7-7---7-7--7-7-7-7-7-7|
E|-----------------------------------------|----------------------------|

G|----------------------------|-----------------------------|
D|----------------------------|-----------------------------|
A|-0--0-0-0---0-0--0-0-0-0-0-0|-----------------------------|
E|----------------------------|-9--9-9-9---9-9-9-9-9-9-9-9-9|

[Verse 1] 
G|-----------------------------------------|----------------------------|
D|-----------------------------------------|----------------------------| -|
A|-11--11-11-11---11-11--11-11-11-11-11-11\|-7--7-7-7---7-7--7-7-7-7-7-7|  |
E|-----------------------------------------|----------------------------|  |
                                                                           | (x2) 
G|----------------------------|----------------------------|               |
D|----------------------------|----------------------------|               |
A|-0--0-0-0---0-0--0-0-0-0-0-0|----------------------------| --------------|
E|----------------------------|-9--9-9-9---9-9--9-9-9-9-9-9|

G|-----------------------------------------|----------------------------|
D|-----------------------------------------|----------------------------|
A|-11--11-11-11---11-11--11-11-11-11-11-11\|-7--7-7-7---7-7--7-7-7-7-7-7|
E|-----------------------------------------|----------------------------|

G|----------------------------|-----------------------------|
D|----------------------------|-----------------------------|
A|-0--0-0-0---0-0--0-0-0-0-0-0|-----------------------------|
E|----------------------------|-9--9-9-9---9-9-9-9-9-9-9-9-9|

G|-----------------------------------------|----------------------------|
D|-----------------------------------------|----------------------------|
A|-11--11-11-11---11-11--11-11-11-11-11-11\|-7--7-7-7---7-7--7-7-7-7-7-7|
E|-----------------------------------------|----------------------------|

G|----------------------------|-------------------------------|
D|----------------------------|-------------------------------|
A|-0--0-0-0---0-0--0-0-0-0-0-0|-------------------------------|
E|----------------------------|-9--9-9-9-9-9-9-9-9-9-9-9-9-9-9|

[Chorus]
G|----------------------------|----------------------------|---------------------------|
D|----------------------------|----------------------------|---------------------------|
A|-9--9-9-9---9-9--9-9-9-9-9-9|-7--7-7-7---7-7--7-7-7-7-7-7|-9--9-9-9--9-9-9--9-9-9-9--|
E|----------------------------|----------------------------|---------------------------|

[Interlude]
G|----------------------------|----------------------------|
D|----------------------------|----------------------------|
A|----------------------------|-7--7-7-7---7-7--7-7-7-7-7-7|
E|-9--9-9-9---9-9--9-9-9-9-9-9|----------------------------|

G|----------------------------|-----------------------------|
D|----------------------------|-----------------------------|
A|-0--0-0-0---0-0--0-0-0-0-0-0|-----------------------------|
E|----------------------------|-9--9-9-9---9-9-9-9-9-9-9-9-9|

G|-----------------------------------------|----------------------------|
D|-----------------------------------------|----------------------------|
A|-11--11-11-11---11-11--11-11-11-11-11-11\|----------------------------|
E|-----------------------------------------|-7--7-7-7---7-7--7-7-7-7-7-7|

G|----------------------------|-----------------------------|               
D|----------------------------|-----------------------------|               
A|-0--0-0-0---0-0--0-0-0-0-0-0|-----------------------------| 
E|----------------------------|-9--9-9-9---9-9-9-9-9-9-9-9-9|

[Verse 2]
G|-----------------------------------------|----------------------------|
D|-----------------------------------------|----------------------------| -|
A|-11--11-11-11---11-11--11-11-11-11-11-11\|-7--7-7-7---7-7--7-7-7-7-7-7|  |
E|-----------------------------------------|----------------------------|  |
                                                                           | (x2) 
G|----------------------------|----------------------------|               |
D|----------------------------|----------------------------|               |
A|-0--0-0-0---0-0--0-0-0-0-0-0|----------------------------| --------------|
E|----------------------------|-9--9-9-9---9-9--9-9-9-9-9-9|

G|-----------------------------------------|----------------------------|
D|-----------------------------------------|----------------------------|
A|-11--11-11-11---11-11--11-11-11-11-11-11\|-7--7-7-7---7-7--7-7-7-7-7-7|
E|-----------------------------------------|----------------------------|

G|----------------------------|-----------------------------|               
D|----------------------------|-----------------------------|               
A|-0--0-0-0---0-0--0-0-0-0-0-0|-----------------------------| 
E|----------------------------|-9--9-9-9---9-9-9-9-9-9-9-9-9|

G|-----------------------------------------|----------------------------|
D|-----------------------------------------|----------------------------|
A|-11--11-11-11---11-11--11-11-11-11-11-11\|-7--7-7-7---7-7--7-7-7-7-7-7|
E|-----------------------------------------|----------------------------|

G|----------------------------|--------------------------------|               
D|----------------------------|--------------------------------|               
A|-0--0-0-0---0-0--0-0-0-0-0-0|--------------------------------| 
E|----------------------------|-9-9-9-9-9-9-9-9-9-9-9-9-9-9-9-9|

[Chorus]
G|----------------------------|----------------------------|--------------------------|
D|----------------------------|----------------------------|--------------------------|
A|-9--9-9-9---9-9--9-9-9-9-9-9|-7--7-7-7---7-7--7-7-7-7-7-7|-9--9-9-9---9-9--9-9-9-9--|
E|----------------------------|----------------------------|--------------------------|

[Interlude]
G|----------------------------|----------------------------|
D|----------------------------|----------------------------|
A|----------------------------|-7--7-7-7---7-7--7-7-7-7-7-7|
E|-9--9-9-9---9-9--9-9-9-9-9-9|----------------------------|

G|----------------------------|-----------------------------|
D|----------------------------|-----------------------------|
A|-0--0-0-0---0-0--0-0-0-0-0-0|-----------------------------|
E|----------------------------|-9--9-9-9---9-9-9-9-9-9-9-9-9|

G|-----------------------------------------|----------------------------|
D|-----------------------------------------|----------------------------|
A|-11--11-11-11---11-11--11-11-11-11-11-11\|----------------------------|
E|-----------------------------------------|-7--7-7-7---7-7--7-7-7-7-7-7|

G|----------------------------|--------------------------------|               
D|----------------------------|--------------------------------|               
A|-0--0-0-0---0-0--0-0-0-0-0-0|--------------------------------| 
E|----------------------------|-9-9-9-9-9-9-9-9-9-9-9-9-9-9-9-9|

[Outro]
G|----------------------------|----------------------------| (x2)
D|----------------------------|----------------------------|
A|-9--9-9-9---9-9--9-9-9-9-9-9|-7--7-7-7---7-7--7-7-7-7-7-7|
E|----------------------------|----------------------------|

G|-----------------------------|---------------------------| 
D|-----------------------------|---------------------------|
A|-9--9-9-9---9-9-9-9-9-9-9-9-9|-7--7-7-7---7-7---7-7-7-7-7|
E|-----------------------------|---------------------------|

G|--------------------------|---|
D|--------------------------|---|
A|-9--9-9-9---9-9--9-9-9-9--|---|
E|--------------------------|-9-|



********************

| \ slide down

********************
Добавлено: 18.04.2017
Другие материалы по этой песне:

Страница создана 09.06.2012
http://primanota.ru/the-sound/winning-chords.htm
Привет, Гость.
Предлагаем пройти революционный курс по гитаре.
Подарок от PrimaNota.Ru, забирай!