PrimaNota.ru - самый крупный в мире бесплатный архив песенных текстов, аккордов, табулатур и нот


The Sound - Sense Of Purpose - бас-таба, видео

Регистрация Запомнить меня
Войти через:  Facebook Google Twitter Vk Yandex Mail.ru

The Sound - Sense Of Purpose - бас-таба, видео

Печатать
Просмотров: 20
Sense of Purpose by The Sound, Album "From The Lion's Mouth"

Tabbed by: Ze'ev Benjamin
E-mail: zeevbenjamin@hush.com

Tuning: E A D G


Intro Pt. I

  
    C#5           
G|------------------------------|
D|--4-h5-5-------------4--------| 4x
A|---------4~~~---4-h5---2~~~---| 
E|------------------------------|

the bass then alters between A and D.
the strokes vary a bit and slowly increase until the main guitar riff comes in, 
but just to give you a basic idea:

    Am                D
G|------------------|-------------------|-----------------|-------------------|
D|------------------|-------------------|-----------------|-------------------|
A|------------------|-5-----------5---5-|-----------------|-5-----------5--5--|
E|--5---5-5-5-5-5-5-|-------------------|-5--------5---5--|-------------------|

and for the final one before the verse:

G|------------------|-------------------|-----------------|-------------------|
D|------------------|-------------------|-----------------|-------------------|
A|------------------|-5-----5-----5---5-|-5-5-5-5-5-5-5-5-|-5-5-5-5-5-5-5-5-5-|
E|--5---5-5-5-5-5-5-|-------------------|-----------------|-------------------|


first verse:

    Am                D                   Am                D
G|------------------|-------------------|-----------------|-------------------|
D|------------------|-------------------|-----------------|-------------------|
A|------------------|-5---5-5-5-5-5-5-5-|-----------------|-5---5-5-5-5-5-5-5-|
E|--5---5-5-5-5-5-5-|-------------------|-5---5-5-5-5-5-5-|-------------------|


chorus: G D Em F

  G                                 D
|---------------------------------|---------------------------------|
|---------------------------------|---------------------------------|
|-------------------------------3-|-5-5-5-5-5-5-5-5~~-5-5-5-5-5-5-5-|
|-3-3-3-3-3-3-3-3-3-3-3-3-3-3-3---|---------------------------------|

  Em                                F
|---------------------------------|---------------------------------|
|---------------------------------|---------------------------------|
|---------------------------------|/8-8-7-7-5-5-3-3/8-8-7-7-5-5-3-3-|
|-0-0-0-0-0-0-0-0-0-0-0-0-0-0-0-0-|---------------------------------|

interlude, second verse and also played during the guitar solo:

    Am                D                   Am                D
G|------------------|-------------------|-----------------|-------------------|
D|------------------|-------------------|-----------------|-------------------|
A|------------------|-5---5-5-5-5-5-5-5-|-----------------|-5---5-5-5-5-------|
E|--5---5-5-5-5-5-5-|-------------------|-5---5-5-5-5-5-5-|-------------1-1-3-|

    Am                D                   F                D
G|------------------|-------------------|-----------------|-------------------|
D|------------------|-------------------|-3---3-3-3-3-3-5-|-0-0-0-0-0-0-0-0-0-|
A|------------------|-5---5-5-5-5-5-5-5-|-----------------|-------------------|
E|--5---5-5-5-5-5-5-|-------------------|-----------------|-------------------|

chorus again:

  G                                 D
|---------------------------------|---------------------------------|
|---------------------------------|---------------------------------|
|-------------------------------3-|-5-5-5-5-5-5-5-5~~-5-5-5-5-5-5-5-|
|-3-3-3-3-3-3-3-3-3-3-3-3-3-3-3---|---------------------------------|

  Em                                F
|---------------------------------|---------------------------------|
|---------------------------------|---------------------------------|
|---------------------------------|/8-8-7-7-5-5-3-3/8-8-7-7-5-5-3-3-|
|-0-0-0-0-0-0-0-0-0-0-0-0-0-0-0-0-|---------------------------------|

and the outro:

 Am                 Em                C                 D
|-----------------|-----------------|-----------------|-----------7---7-|
|-----------------|-----------------|-----------------|-----------------|
|-----------------|-7-7-7-7-7-7-7-7-|-3-3-3-3-3-3-3-3-|-5-5-5-5-5---5---|
|-5-5-5-5-5-5-5-5-|-----------------|-----------------|-----------------|



Have fun!



| /  slide up
| \  slide down
| h  hammer-on
| p  pull-off
| ~  vibrato
| +  harmonic
| x  Mute note
===============================================================================
Добавлено: 15.11.2015
Вам также может быть интересно:
Другие материалы по этой песне:
  • Аккорды и текст

Страница создана 15.11.2015
http://primanota.ru/the-sound/sense-of-purpose-chords.htm
Привет, Гость.
Предлагаем пройти революционный курс по гитаре.
Подарок от PrimaNota.Ru, забирай!