PrimaNota.ru - самый крупный в мире бесплатный архив песенных текстов, аккордов, табулатур и нот


The Sound - Contact The Fact - бас-таба, видео

Регистрация Запомнить меня
Войти через:  Facebook Google Twitter Vk Yandex Mail.ru

The Sound - Contact The Fact - бас-таба, видео

Печатать
Просмотров: 73
Уроки эстрадного вокала в Санкт-Петербурге
Bass Start - 00:04


[Intro]
G|-----------------|
D|-----------------|
A|-4---------------|
E|-----------------|

G|----------------|----------------|----------------|----------------| (x2)
D|----------------|----------------|----------------|----------------|
A|-2-2-2-2-2-2-2-2|----------------|-4-4-4-4-4-4-4-4|-4-4-4-4-4-4-4-4|
E|----------------|-3-3-3-3-3-3-3-3|----------------|----------------|

[Verse 1]
G|----------------|----------------|----------------|----------------| (x4)
D|----------------|----------------|----------------|----------------|
A|-2-2-2-2-2-2-2-2|----------------|-4-4-4-4-4-4-4-4|-4-4-4-4-4-4-4-4|
E|----------------|-3-3-3-3-3-3-3-3|----------------|----------------|

[Interlude]
G|-4--4-4-4-4-4-4|----4----4---4|----------------|----------------|
D|---------------|-5----5----5--|----------------|----------------|
A|---------------|--------------|-4-4-4-4-4-4-4-4|-4-4-4-4-4-4-4-4|
E|---------------|--------------|----------------|----------------|

[Verse 2]
G|----------------|----------------|----------------|----------------| (x3)
D|----------------|----------------|----------------|----------------|
A|-2-2-2-2-2-2-2-2|----------------|-4-4-4-4-4-4-4-4|-4-4-4-4-4-4-4-4|
E|----------------|-3-3-3-3-3-3-3-3|----------------|----------------|

G|----------------|----------------|----------------|----------------| 
D|----------------|----------------|----------------|----------------|
A|-2-2-2-2-2-2-2-2|----------------|-4-4-4-4-4-4-4-4|-4-4-4-4-4------|
E|----------------|-3-3-3-3-3-3-3-3|----------------|-----------2-3-4|

[Chorus]
G|---------------|---------------|---------------|----------------| (x4)
D|---------------|---------------|---------------|----------------|
A|---------------|---------------|-3--3-3-3-3-3-3|-3-3-3-3-3-5-5-5|
E|-5--5-5-5-5-5-5|-3--3-3-3-3-3-3|---------------|----------------|

[Interlude]
G|----------------|----------------|----------------|----------------| (x2)
D|----------------|----------------|----------------|----------------|
A|-2-2-2-2-2-2-2-2|----------------|-4-4-4-4-4-4-4-4|-4-4-4-4-4-4-4-4|
E|----------------|-3-3-3-3-3-3-3-3|----------------|----------------|

[Verse 3]
G|----------------|----------------|----------------|----------------| (x3)
D|----------------|----------------|----------------|----------------|
A|-2-2-2-2-2-2-2-2|----------------|-4-4-4-4-4-4-4-4|-4-4-4-4-4-4-4-4|
E|----------------|-3-3-3-3-3-3-3-3|----------------|----------------|

G|----------------|----------------|---------------|----------------| 
D|----------------|----------------|-4--4-4-4-4-4-4|-4-4-4-4-4------|
A|-2-2-2-2-2-2-2-2|----------------|---------------|----------------|
E|----------------|-3-3-3-3-3-3-3-3|---------------|-----------2-3-4|

[Chorus]
G|---------------|---------------|---------------|----------------| (x4)
D|---------------|---------------|---------------|----------------|
A|---------------|---------------|-3--3-3-3-3-3-3|-3-3-3-3-3-5-5-5|
E|-5--5-5-5-5-5-5|-3--3-3-3-3-3-3|---------------|----------------|

[Instrumental]
G|----------------|----------------|----------------|----------------| (x3)
D|----------------|----------------|----------------|----------------|
A|-2-2-2-2-2-2-2-2|----------------|-4-4-4-4-4-4-4-4|-4-4-4-4-4-4-4-4|
E|----------------|-3-3-3-3-3-3-3-3|----------------|----------------|

G|----------------|----------------|----------------|----------------| 
D|----------------|----------------|-4-4-4-4-4-4-4-4|-4-4-4-4-4------|
A|-2-2-2-2-2-2-2-2|----------------|----------------|----------------|
E|----------------|-3-3-3-3-3-3-3-3|----------------|-----------2-3-4|

[Chorus]
G|---------------|---------------|---------------|----------------| (x4)
D|---------------|---------------|---------------|----------------|
A|---------------|---------------|-3--3-3-3-3-3-3|-3-3-3-3-3-5-5-5|
E|-5--5-5-5-5-5-5|-3--3-3-3-3-3-3|---------------|----------------|

[Outro] (repeat until the end)
G|---------------|---------------|---------------|----------------|
D|---------------|---------------|---------------|----------------|
A|---------------|---------------|-3--3-3-3-3-3-3|-3-3-3-3-3-5-5-5|
E|-5--5-5-5-5-5-5|-3--3-3-3-3-3-3|---------------|----------------|
Добавлено: 18.04.2017
Другие материалы по этой песне:
  • Аккорды и текст

Страница создана 18.04.2017
http://primanota.ru/the-sound/contact-fact-chords.htm
Привет, Гость.
Предлагаем пройти революционный курс по гитаре.
Подарок от PrimaNota.Ru, забирай!