PrimaNota.ru - самый крупный в мире бесплатный архив песенных текстов, аккордов, табулатур и нот


The Sound Stylistics - Keepin On - бас-таба, видео

Регистрация Запомнить меня
Войти через:  Facebook Google Twitter Vk Yandex Mail.ru

The Sound Stylistics - Keepin On - бас-таба, видео

Печатать
Просмотров: 56
Song: Keepin On
Album: Play Deep Funk
Artist: The Sound Stylistics

This is in standard tuning (E, A, D, G)

The Sound Stylistics Website: http://www.soundstylistics.com/

I LOVE The Sound Stylistics and I was listening through their first album Play Deep Funk again and
I knew that I had to learn this. To save everyone time, I decided to tab it out. Enjoy! :)

The bass comes in at 03:00
G--------------------------------------------------|
D-----------------------------------------------68-|
A--6-8-66-8-66-8-----6-8--6-8-66-8-66-8-----6-8----|
E----------------6-8--------------------6-8--------|

G---------------------------------------------------|
D-----------------------------------------------86--|
A--6-8-66-8-66-8-----6-8--6-8-66-8-66-8-----6-8---8-|
E----------------6-8--------------------6-8---------|

0:38
G--------------------------|
D--------------------------|
A--------------3-3-3/4-4-4-|
E--5-5-5/6-6-6-------------|

1:13
G--------------------------------------------------|
D-----------------------------------------------68-|
A--6-8-66-8-66-8-----6-8--6-8-66-8-66-8-----6-8----|
E----------------6-8--------------------6-8--------|

G---------------------------------------------------|
D-----------------------------------------------86--|
A--6-8-66-8-66-8-----6-8--6-8-66-8-66-8-----6-8---8-|
E----------------6-8--------------------6-8---------|

1:48
G--------------------------|
D--------------------------|
A--------------3-3-3/4-4-4-|
E--5-5-5/6-6-6-------------|3x

G---------------------------|
D---------------------------|
A--------------3-3-3/4-4-4\-|
E--5-5-5/6-6-6--------------| 1x

2:23
G--------------------------|
D--------------------------|
A--------------3-3-3/4-4-4-|
E--5-5-5/6-6-6-------------| Play this until the end! :D

Tabbed by: Max Dietz
Добавлено: 07.07.2013
Другие материалы по этой песне:
  • Аккорды и текст

Страница создана 07.07.2013
http://primanota.ru/the-sound-stylistics/keepin-on-chords.htm
Привет, Гость.
Предлагаем пройти революционный курс по гитаре.
Подарок от PrimaNota.Ru, забирай!