PrimaNota.ru - самый крупный в мире бесплатный архив песенных текстов, аккордов, табулатур и нот


The Sound Of Animals Fighting - Cellophane - таба, видео

Регистрация Запомнить меня
Войти через:  Facebook Google Twitter Vk Yandex Mail.ru

The Sound Of Animals Fighting - Cellophane - таба, видео

Печатать
Просмотров: 89
Уроки эстрадного вокала в Санкт-Петербурге
Cellophane


These measures are played three times.

Lead Guitar -
----------------2~4------------4~6--------------6--------------6-------------7----------6~2-|
--------------------------------------------------------------------------------------------|
--------------------------------------------------------------------------------------------|
--------------------------------------------------------------------------------------------|
--------------------------------------------------------------------------------------------|
--------------------------------------------------------------------------------------------|

Bass Guitar -
--------------------------------------------------------------------------------------------|
-----------------------------------------------------------------0-----0-------0-----0------|
--------3------3--------3-----3-------3-----3-------3-----3----1---3-1---3---1---3-1---3----|
------4------4------3-4---3-4-----4-4---4-4-----4-4---4-4-----------------------------------|
----6------6--------------------------------------------------------------------------------|
--------------------------------------------------------------------------------------------|


-----------2--------2~1---1~4--4~2---2~4----4~2---2~1-----1~2--|
---------------------------------------------------------------|
---------------------------------------------------------------|
---------------------------------------------------------------|
---------------------------------------------------------------|
---------------------------------------------------------------|

---------------------------------------------------------------|
---------------------------------------------------------------|
--------3-------3------3------3-----3------3-----3------3------|
------4-------4------4----3-4-----4----3-4-----4------4--------|
----6-------6------5------------6------------6------5----------|
---------------------------------------------------------------|
Добавлено: 24.06.2012
Другие материалы по этой песне:
  • Аккорды и текст

Страница создана 13.04.2012
http://primanota.ru/the-sound-of-animals-fighting/cellophane-chords.htm
Привет, Гость.
Предлагаем пройти революционный курс по гитаре.
Подарок от PrimaNota.Ru, забирай!