PrimaNota.ru - самый крупный в мире бесплатный архив песенных текстов, аккордов, табулатур и нот


The Sound City Players - From Can To Cant - таба, видео

Регистрация Запомнить меня
Войти через:  Facebook Google Twitter Vk Yandex Mail.ru

The Sound City Players - From Can To Cant - таба, видео

Печатать
Просмотров: 197
Corey Taylor/Dave Grohl/Scott Reeder/Rick Nielsen.
All their rights are belong to them.
Standard tuning.
Capo fret 2.

Verse 1

E|-------------------------------------------------|
B|-------------------------------------------------|
G|---0-----0-----0-----0-----0-----0-----0-----0---|
D|-----2-----2-----2-----2-----2-----2-----2-----2-|
A|-------------------0-----3-----2-----1-----0-----|
E|-0-----2-----3-----------------------------------|x6

Chorus

E|-------------------------------------------------|
B|-------5-----------3---------0-----0-----0-----0-|
G|-----5---5-------4---4-----0-----0-----0-----0---|
D|---5-------5---4-------4-------------------------|
A|-3-----------2-----------------------------0-----|
E|-------------------------0-----2-----3-----------|x2
 
E|-----------------------------------------------------------------------|
B|-------5---------3-----------------------------------------------------|
G|-----5---5-----4---4-----0-----0-----0-----0----0------0-----0-----0---|
D|---5---------4-------4-----2-----2-----2-----2-----2-----2-----2-----2-|
A|-3---------2-----------------------------0-----------------------0-----|
E|-----------------------0-----2-----3-----------0-----2-----3-----------|

Heavy part. Play this with verse 1 in the background.

E|-----------------------------------|
B|-----------------------------------|
G|-------------------5---4-----------|
D|---2---4---5---7---5---4---7---5---|
A|---2---4---5---7---3---2---7---5---|
E|---0---2---3---5-----------5---3---|x4

Heavy Chorus


E|-------------------------------------------------------------------|
B|-------------------------------------------------------------------|
G|---5---4-------------------5---4-----------------------------------|
D|---5---4---2---4---5---7---5---4---2---4---5---7---2---4---5---7---|
A|---3---2---2---4---5---7---3---2---2---4---5---7---2---4---5---7---|
E|-----------0---2---3---5-----------0---2---3---5---0---2---3---5---|

Over solo, play this.

E|-----------------------------------|
B|-----------------------------------|
G|-----------------------------------|
D|---2---4---5---7---2---4---5---7---|
A|---2---4---5---7---2---4---5---7---|
E|---0---2---3---5---0---2---3---5---|x2

Heavy Chorus.
Verse, et cetera, et cetera.
Comments, corrections, and ratings are welcome.
Добавлено: 15.10.2013
Другие материалы по этой песне:
  • Аккорды и текст

Страница создана 13.07.2013
http://primanota.ru/the-sound-city-players/from-can-to-cant-chords.htm
Привет, Гость.
Предлагаем пройти революционный курс по гитаре.
Подарок от PrimaNota.Ru, забирай!