PrimaNota.ru - самый крупный в мире бесплатный архив песенных текстов, аккордов, табулатур и нот


The Sound City Players - A Trick With No Sleeve - аккорды и текст, таба, видео

Регистрация Запомнить меня
Войти через:  Facebook Google Twitter Vk Yandex Mail.ru

The Sound City Players - A Trick With No Sleeve - аккорды и текст, таба, видео

Печатать
Просмотров: 114
A Trick With No Sleeve
The Sound City Players
A TRICK WITH NO SLEEVE
(by Alain Johannes, Dave Grohl & Joshua Homme)

I like to play this song with the pick, by picking the 'bass' notes with it, and 
plucking with my fingers the other strings. Also, when it get to the chorus, you 
can strum as it should be, without losing pace. What a great song!

Intro:
     D
e||--2~~----------|---------------|---------------|---------------||
B||--3~~---3---3--|----3---3---3--|----3---3---3--|----3---3---3--||
G||--2~~---2---2--|----2---2---2--|----2---2---2--|----2---2---2--||
D||--0~~----------|--0------------|--0------------|--0------------||
A||---------------|---------------|---------------|---------------||
E||------3---0----|------3---0----|------3---0----|------3---0----||

     D                              D
e||--2~~----------|---------------|--2~~----------|---------------||
B||--3~~---3---3--|----3---3---3--|--3~~---3---3--|----3---3---3--||
G||--2~~---2---2--|----2---2---2--|--2~~---2---2--|----2---2---2--||
D||--0~~----------|--0------------|--0~~----------|--0------------||
A||---------------|---------------|---------------|---------------||
E||------3---0----|------3---0----|------3---0----|------3---0----||

Verse 1:
     D                           x7  F                           x3  G                            x3
e||--2------------|---------------|--5~~----------|---------------|--7~~----------|---------------||
B||--3~~---3---3--|o---3---3---3-o|--6~~---6---6--|o---6---6---6-o|--8~~---8---8--|o---8---8---8-o||
G||--2~~---2---2--|----2---2---2--|--5~~---5---5--|----5---5---5--|--7~~---7---7--|----7---7---7--||
D||--0~~----------|--0------------|--0~~----------|--0------------|--0~~----------|--0------------||
A||---------------|o-------------o|---------------|o-------------o|---------------|o-------------o||
E||------3---0----|------3---0----|------6---5----|------6---5----|------8---7----|------8---7----||

Verse 2 (this is shorter):
     D                           x3  F                           x3  G                            x3
e||--2------------|---------------|--5~~----------|---------------|--7~~----------|---------------||
B||--3~~---3---3--|o---3---3---3-o|--6~~---6---6--|o---6---6---6-o|--8~~---8---8--|o---8---8---8-o||
G||--2~~---2---2--|----2---2---2--|--5~~---5---5--|----5---5---5--|--7~~---7---7--|----7---7---7--||
D||--0~~----------|--0------------|--0~~----------|--0------------|--0~~----------|--0------------||
A||---------------|o-------------o|---------------|o-------------o|---------------|o-------------o||
E||------3---0----|------3---0----|------6---5----|------6---5----|------8---7----|------8---7----||

Chorus 1:
    D
    Open hands a glowing sun
          C        G     Bb
    On my way back home
      D
    A loving glance, a caring touch 
          C                G     Bb
    Oh, I hope it won't be long
       D
    An open heart, a deep blue moon
          C        G     Bb
    On my way back home
    D
    The magic at the rainbow's end
          C                G     Bb
    Oh, I hope it won't be long

Verse 3 (same as Verse 1);

Chorus 2 (same as Chorus 1);

Bridge:
Dm                             G      F
     Won't you reach into this liiiiiiiife
Dm                             G      F
     Won't you reach into this liiiiiiiife
Dm                             G    
     Won't you reach into this liiiife
              A
     And take it

Chorus 3 (same as Chorus 1, without the last Eb, connects with Outro);

Outro:
    C                G
    Hope it won't be long
    C                G
    Hope it won't be long
    C                G
    Hope it won't be long

(Ends in D, playing the bass like the intro)


Lyrics:
Under hallowed sky
Ghosts are giving way
As a crow did fly
Meet me here someday
One from ashes risen
Two from memories served
On three we all believe
Trick with no sleeve

Blinded by the deafening
Ever-present past
Silent voices carry
Mine won't be the last
So I do believe
A trick with no sleeve

Open hands a glowing sun
On my way back home
A loving glance, a caring touch
Oh, I hope it won't be long
An open heart, a deep blue moon
On my way back home
The magic at the rainbow's end
Oh, I hope it won't be long

Woke up in a mirror
Saw myself as you
Didn't seem so different
Now what should we do?
Pick up missing pieces
Mystery once again
So, I do believe
A trick with no sleeve

Open hands a glowing sun
On my way back home
A loving glance, a caring touch
Oh, I hope it won't be long
An open heart, a deep blue moon
On my way back home
The magic at the rainbow's end
Oh, I hope it won't be long

Won't you reach into this life
Won't you reach into this life
Won't you reach into this life
And take it

Open hands, a glowing sun
On my way back home
A loving glance, a caring touch
Oh, I hope it won't be long
An open heart, a deep blue moon
On my way back home
The magic at the rainbow's end
Oh, I hope it won't be long

Hope it won't be long
Hope it won't be long
Hope it won't be long
Добавлено: 26.09.2013
Другие материалы по этой песне:
  • Аккорды и текст

Страница создана 11.06.2013
http://primanota.ru/the-sound-city-players/a-trick-with-no-sleeve-chords.htm
Привет, Гость.
Предлагаем пройти революционный курс по гитаре.
Подарок от PrimaNota.Ru, забирай!