PrimaNota.ru - самый крупный в мире бесплатный архив песенных текстов, аккордов, табулатур и нот


The Soldier Thread - Oxygen - таба, видео

Регистрация Запомнить меня
Войти через:  Facebook Google Twitter Vk Yandex Mail.ru

The Soldier Thread - Oxygen - таба, видео

Печатать
Просмотров: 23
The Soldier Thread
Oxygen
Unreleased

Capo 2

Intro
E----------------------------------|
B----------------------------------|
G----------------------------------|
D--2-2-2-2-2-2-2-2-2-2-2-2-2-2-2-2-|
A-0-0-0-0-0-0-0-0-4-4-4-4-4-4-4-4--|
E----------------------------------|

Verse 1
E------------------------------------------------------------------|
B------------------------------------------------------------------|
G------------------------------------------------------------------|
D--2-2-2-2-2-2-2-2-2-2-2-2-2-2-2-2-4-4-4-4-2-2-2-2-7-7-7-7-2-2-2-2-|
A-0-0-0-0-0-0-0-0-4-4-4-4-4-4-4-4-0-0-0-0-0-0-0-0-0-0-0-0-2-2-2-2--|
E------------------------------------------------------------------|
Love, you think you know what that means. You got be in the backseat of promises you can't keep.

E------------------------------------------------------------------|
B------------------------------------------------------------------|
G------------------------------------------------------------------|
D--2-2-2-2-2-2-2-2-2-2-2-2-2-2-2-2-4-4-4-4-2-2-2-2-7-7-9-7-2-2-2-2-|
A-0-0-0-0-0-0-0-0-4-4-4-4-4-4-4-4-0-0-0-0-0-0-0-0-0-0-0-0-2-2-2-2--|
E------------------------------------------------------------------|
Lie, tell me what you need to. And maybe I'll believe you. Talkin like machines do.

Chorus
E-------|
B-2-5-0-|
G-2-6-1-|
D-2-6-2-|
A-0-4-2-|
E-----0-|
Oh no. Running out of oxygen.

Post Chorus
E----------------------------------|
B----------------------------------|
G----------------------------------|
D--2-2-2-2-2-2-2-2-2-2-2-2-2-2-2-2-|
A-0-0-0-0-0-0-0-0-4-4-4-4-4-4-4-4--|
E----------------------------------|

Verse 2
E------------------------------------------------------|
B------------------------------------------------------|
G------------------------------------------------------|
D-2----2-2-2-2-2-2-2-2-4-4-4-4-2-2-2-2-7-7-7-0-2-2-2-2-|
A-0---4-4-4-4-4-4-4-4-0-0-0-0-0-0-0-0-0-0-0-0-2-2-2-2--|
E------------------------------------------------------|
Oh don't tell me that I lost you. I'm sorry that I crossed you. I tried my hardest not to.


E------------------------------------------------------------------|
B------------------------------------------------------------------|
G----------4-2-----------------------------------------------------|
D--2-2-2-2-----2-2-2-2-2-2-2-2-2-2-4-4-4-4-2-2-2-2-7-7-9-0-2-2-2-2-|
A-0-0-0-0-0-0-0-0-4-4-4-4-4-4-4-4-0-0-0-0-0-0-0-0-0-0-0-0-2-2-2-2--|
E------------------------------------------------------------------|
Leave me hanging on a clothesline. Say all you need is more time. I need you. I don't know why.

Chorus 2
E-------|-----0-|
B-2-5-0-|-2-5-0-|
G-2-6-1-|-2-6-9-|
D-2-6-2-|-2-6-9-|
A-0-4-2-|-0-4-7-|
E-----0-|-----0-|
Oh no. Running out of oxygen.
Oh no. Oh no. You think you know me. You think you know me but you don't. No.

Verse 3
E------------------------------------------------------------|
B------------------------------------------------------------|
G------------------------------------------------------------|
D--2-2-2-2-2-2-2-2-2-2-2-2-2-2-2-2-4-4-4-4-2-2-2-2-7-7-7-0-2-|
A-0-0-0-0-0-0-0-0-4-4-4-4-4-4-4-4-0-0-0-0-0-0-0-0-0-0-0-0--2-|
E------------------------------------------------------------|
Yeah. I know I made a mistake. I wish I made a clean break. Wish I made a clean break.

Chorus 2

Questions?
Email at cory.roesch@yahoo.com
Добавлено: 20.05.2016
Другие материалы по этой песне:
  • Аккорды и текст

Страница создана 20.05.2016
http://primanota.ru/the-soldier-thread/oxygen-chords.htm
Привет, Гость.
Предлагаем пройти революционный курс по гитаре.
Подарок от PrimaNota.Ru, забирай!