PrimaNota.ru - самый крупный в мире бесплатный архив песенных текстов, аккордов, табулатур и нот


The Smith Street Band - I Dont Wanna Die Anymore - таба, видео

Регистрация Запомнить меня
Войти через:  Facebook Google Twitter Vk Yandex Mail.ru

The Smith Street Band - I Dont Wanna Die Anymore - таба, видео

Печатать
Просмотров: 173
-------------------------------------------------------------------------------
          I DON'T WANNA DIE ANYMORE - The Smith Street Band
-------------------------------------------------------------------------------
Tabbed by: Blemo

Tuning: Drop D

Intro:

e|---------------------------------------------------------------------------|
B|---------------------------------------------------------------------------|
G|---------------------------------------------------------------------------|
D|-----------4-h6-4----------------------------------------------------------|
A|-0-h2-4-h7-------7~--------------------------------------------------------|
D|---------------------------------------------------------------------------|

Main riff (lead)

e|-----------------14--------------------------------------------------------|
B|--------14----------14-16-p14----------------------------------------------|
G|-14-h16----16-14--------------16-------------------------------------------|
D|---------------------------------------------------------------------------|
A|---------------------------------------------------------------------------|
D|---------------------------------------------------------------------------| 

Pre-Verse

e|---------------------------------------------------------------------------|
B|---------------------------------------------------------------------------|
G|---------------------------------------------------------------------------|
D|-7-7-7-7-7-7-7-7-4-4-4-4-2-2-2-2-9-9-9-9-9-9-9-9-9-9-9-9-9-9-9-9-----------|
A|-7-7-7-7-7-7-7-7-4-4-4-4-2-2-2-2-9-9-9-9-9-9-9-9-9-9-9-9-9-9-9-9-----------|
D|-7-7-7-7-7-7-7-7-4-4-4-4-2-2-2-2-9-9-9-9-9-9-9-9-9-9-9-9-9-9-9-9-----------| 

Verse
(Palm Puted)
e|---------------------------------------------------------------------------|
B|---------------------------------------------------------------------------|
G|---------------------------------------------------------------------------|
D|-7-7-7-7-7-7-7-7-4-4-4-4-2-2-2-2-9-9-9-9-9-9-9-9-9-9-9-9-9-9-9-9-----------|
A|-7-7-7-7-7-7-7-7-4-4-4-4-2-2-2-2-9-9-9-9-9-9-9-9-9-9-9-9-9-9-9-9-----------|
D|-7-7-7-7-7-7-7-7-4-4-4-4-2-2-2-2-9-9-9-9-9-9-9-9-9-9-9-9-9-9-9-9-----------| 

Chorus

e|-----------------------------------------------------------------------------|
B|-----------------------------------------------------------------------------|
G|-----------------------------------------------------------------------------|
D|-7-7-7-7-7-7-7-7-7-7-7-7-7-7-7-7-4-4-4-4-4-4-4-4-2-2-2-2-4-4-4-4-0-0-0--0-0-0|
A|-7-7-7-7-7-7-7-7-7-7-7-7-7-7-7-7-4-4-4-4-4-4-4-4-2-2-2-2-4-4-4-4-0-0-0--0-0-0|
D|-7-7-7-7-7-7-7-7-7-7-7-7-7-7-7-7-4-4-4-4-4-4-4-4-2-2-2-2-4-4-4-4-0-0-0--0-0-0| 

Bridge

e|-------------------|    |------------------------|
B|-------------------|    |------------------------|
G|-------------------|    |------------------------|
D|-----------4-h6-4--|    |-0-0-0-0-0-0-0-0-0-0-0-0|
A|-0-h2-4-h7-------7-|    |-0-0-0-0-0-0-0-0-0-0-0-0|
D|-------------------| x4 |-0-0-0-0-0-0-0-0-0-0-0-0|

Thanks guys, This took longer to work out than it should've.

************************************

| /   slide up
| \   slide down
| h   hammer-on
| p   pull-off
| ~   vibrato
| +   harmonic
| x   Mute note
| b   Bend
| pb  Pre-bend
| br  Bend release
| pbr Pre-bend release
| brb Bend release bend

************************************
Добавлено: 05.05.2015
Другие материалы по этой песне:
  • Аккорды и текст

Страница создана 05.05.2015
http://primanota.ru/the-smith-street-band/i-dont-wanna-die-anymore-chords.htm
Привет, Гость.
Предлагаем пройти революционный курс по гитаре.
Подарок от PrimaNota.Ru, забирай!