PrimaNota.ru - самый крупный в мире бесплатный архив песенных текстов, аккордов, табулатур и нот


The Slits - Newtown John Peel Bbc Radio 1 Session 1977 - бас-таба, видео

Регистрация Запомнить меня
Войти через:  Facebook Google Twitter Vk Yandex Mail.ru

The Slits - Newtown John Peel Bbc Radio 1 Session 1977 - бас-таба, видео

Печатать
Просмотров: 59
intro

E|-----------0-3-5--------------------0-3-5---------------------------|
A|--3-0-3------------5-0-3-0-3-0-3------------------------------------|
D|--------------------------------------------------------------------|
G|--------------------------------------------------------------------|


verse 1
E|----------0-3-5--------------------0-3-5------------|
A|--3-0-3----------5-0-3-0-3-0-3----------------------|
D|----------------------------------------------------|
G|----------------------------------------------------|
        newtown, where everybody goes around sniffing televisena, or taking footbollina

chorus 1
E|-----------0-3-5--------------------0-3-5-------------------------0-0-0-0----|
A|--3-0-3-----------5-0-3-0-3-0-3-----------5-0-5-0-3-5-7-7-7-7----------------|
D|-----------------------------------------------------------------------------|
G|-----------------------------------------------------------------------------|
        newtown, newtown, newtown, newtown, newtown!

verse 2
E|----------0-3-5-------------------0-3-5--------------------------0-0-0-0----|
A|--3-0-3----------5-0-3-0-3-0-3----------5-0-5-0-3-5-7-7-7-7-----------------|
D|----------------------------------------------------------------------------|
G|----------------------------------------------------------------------------|
        oh, oh, give me another fix, oh, oh, oh, oh, give me another fix, if not i'll go 
sick, i'll be sick, i'll be sick!

interlude 1
E|--5--5-5-5---3--3-3-3-3--1--1-1-1-1-1---5--5-5-5--3--3-3-3-3--1--1-1-1-------|
A|-----------------------------------------------------------------------------|
D|-----------------------------------------------------------------------------|
G|-----------------------------------------------------------------------------|

verse 3, verse 4 and chorus 2
E|--5----5-5-----------------5-----5-5-------------------------------------|
A|----3-------3-5-7-5-5-7------3-------3-5-7-5-5-7-------------------------|
D|---------------------------------------------------5-7-5-5-7-5-7-5-5-7-1-|4(x8)
G|-------------------------------------------------------------------------|
        oh, oh, oh, give me another fix, oh, oh, oh, oh, give me another fix, if not ill 
go sick, ill be sick, ill be sick! morning papers will bring you something flash, make 
your bones shake, keep busy your mind, newtown, newtown, newtown, newtown, newtown . . .

interlude 2

verse 4
        oh, oh, give another fix, i, i, i, need another fix, if not i'll be sick, i'll 
be sick, i'll be sick!

outro
E|--5-5-3-3-5-5-3-3-5--------------------------

www.myspace.com/theslits

song written by the slits
tab by Fyr.Fans
Добавлено: 25.08.2013
Вам также может быть интересно:
Другие материалы по этой песне:
  • Аккорды и текст

Страница создана 25.08.2013
http://primanota.ru/the-slits/newtown-john-peel-bbc-radio-1-session-1977-chords.htm
Привет, Гость.
Предлагаем пройти революционный курс по гитаре.
Подарок от PrimaNota.Ru, забирай!