PrimaNota.ru - самый крупный в мире бесплатный архив песенных текстов, аккордов, табулатур и нот


The Slip - Beetle To The Badlands - таба, видео

Регистрация Запомнить меня
Войти через:  Facebook Google Twitter Vk Yandex Mail.ru

The Slip - Beetle To The Badlands - таба, видео

Печатать
Просмотров: 58
This is a song by a not so well known band called The Slip.  I highly
suggest getting one of their CD's if you haven't done so already.  For those
of you who do know the band, you have probably been waiting for someone to
tab this song.  It is an awesome fingerpickin' tune called "Beetle to the
Badlands," and it is off of the album "Angels come on time."  I did my best
for accuracy, but it is a tricky song and I'm sure there are a few notes I
missed.  I made a feeble attempt at using spaces for timing.  This is just
the intro/verse, but the chorus isn't that hard.  I'll tab it when I sit
down to figure it out.


Standard tuning



----------------------------------------
----------------------------------------
-/4-------2----0----0--------0------0--
-/5--------------------2--------2-------
---------------3---------------------3--
-------3------------------3-------------



----------------------------------------
---------------3------------3-------3---
-/4-------0----2-------2-------2----2h4-
-/5------------0----0-------------------
-------3--------------------------------
------------------------------------3---




----------------------------------3-----
----------3-------1---------------------
----4--------2------------0h2----------
-0---------------------2--------2-------
-------------------------------------0--
----------------------------------------





------------------------------1---------
-1------------0------------0------------
-2----0---------------0-----------------
---------0---------0--------------------
----------------------------------------
--------------3-------------------------



This then repeats several times, possibly with minor variations.  It looks a
hell of a lot easier than it is.  If you have any questions about the
fingering or you want me to tab something else, just let me know.
derek_laws@hotmail.com

     
Добавлено: 30.07.2013
Другие материалы по этой песне:
  • Аккорды и текст

Страница создана 30.07.2013
http://primanota.ru/the-slip/beetle-to-the-badlands-chords.htm
Привет, Гость.
Предлагаем пройти революционный курс по гитаре.
Подарок от PrimaNota.Ru, забирай!