PrimaNota.ru - самый крупный в мире бесплатный архив песенных текстов, аккордов, табулатур и нот


The Sleeping - Dont Hold Back - текст песни, таба, бас-таба, видео

Регистрация Запомнить меня
Войти через:  Facebook Google Twitter Vk Yandex Mail.ru

The Sleeping - Dont Hold Back - текст песни, таба, бас-таба, видео

Печатать
Просмотров: 188
-------------------------------------------------------------------------------
                             Dont Hold Back - The Sleeping
-------------------------------------------------------------------------------
Tabbed by:Jamjar

Tuning: E A D G B e
        Standard

Note: This tab has been rated novice because it is a easy tab but bearing in mind the 
is played quite fast it would be easier for a more experienced guitarist to pick up. so 
some of my finest work for you ;)
 the intro of course
Intro
e|---------------------------------------------------------------------------|
B|---------------------------------------------------------------------------|
G|---------------------------------------------------------------------------|
D|---------------------------------------------------------------------------|
A|-----------------------------------------------------------------3--2--0---|
E|---3---5---3---5---3--5--35----3---5---3---5---3--5--35---3---5------------|

e|---------------------------------------------------------------------------|
B|---------------------------------------------------------------------------|
G|---------------------------------------------------------------------------|
D|---------------------------------------------------------------------------|
A|----------3--2--0----0---3---0---3---0--3--03----0---3---0---3---0--3--03--|
E|---3---5-------------------------------------------------------------------|

e|---------------------------------------------------------------------------|
B|---------------------------------------------------------------------------|
G|------------------------------0--2--0--2-----------------------------------|
D|-0---2---0---2---0--2--02--------------------------------------------------|
A|------------------------------------------2---3----------------------------|
E|-------------------------------------------------3-----3---5---3---5---3---|

e|---------------------------------------------------------------------------|
B|---------------------------------------------------------------------------|
G|---------------------------------------------------------------------------|
D|---------------------------------------------------------------------------|
A|-----------------------------------------------3--2--0-----------3--2--0---|
E|----5--35---3---5---3---5---3--5--35----3---5-------------3---5------------|

e|---------------------------------------------------------------------------|
B|---------------------------------------------------------------------------|
G|---------------------------------------------------------------------------|
D|----------------------------------------------------------0---2---0---2----|
A|--0---3---0---3---0--3--03----0---3---0---3---0--3--03---------------------|
E|---------------------------------------------------------------------------|

e|---------------------------------------------------------------------------|
B|---------------------------------------------------------------------------|
G|---------------0--2--0--2b-------------------------------------------------|
D|---0--2--02----------------------------------------------------------------|
A|---------------------------------------------------------------------------|
E|---------------------------------------------------------------------------|

http://www.thesleeping.com/
Добавлено: 27.05.2012
Другие материалы по этой песне:

Страница создана 21.02.2012
http://primanota.ru/the-sleeping/dont-hold-back-chords.htm
Привет, Гость.
Предлагаем пройти революционный курс по гитаре.
Подарок от PrimaNota.Ru, забирай!