PrimaNota.ru - самый крупный в мире бесплатный архив песенных текстов, аккордов, табулатур и нот


The Skyliners - Footsteps - бас-таба, видео

Регистрация Запомнить меня
Войти через:  Facebook Google Twitter Vk Yandex Mail.ru

The Skyliners - Footsteps - бас-таба, видео

Печатать
Просмотров: 32
Tabbed by: 6METAL6BASSIST6
E-mail: petergriffinav@gmail.com

Tuning: EADG

G|------------------|
D|------------------|
A|------1-----3-----|
E|4-----------------|

G|------------------------------------------------------------------------------------------------|
D|----------3-------6---------------3-------6-----------------------3-----------------------3-----|
A|4-------4---------------4-----------------------1---------4-------------1---------4-------------|
E|------------------------------------------------------------------------------------------------|

G|----------3-------6---------------3-------6---------------5-------8-----------------------------|
D|4-----------------------4------------------------6----------------------6-----4-----3-----------|
A|------------------------------------------------------------------------------------------6-----|
E|------------------------------------------------------------------------------------------------|

G|------------------------------------------------------------------------------------------------|
D|----------3-------6---------------3-------6-----------------------3-----------------------3-----|
A|4-----------------------4-----------------------1---------4-------------1---------4-------------|
E|------------------------------------------------------------------------------------------------|

G|----------3-------6---------------3-------6---------------5-------8-----------------------------|
D|4-----------------------4------------------------6----------------------6-----4-----3-----------|
A|------------------------------------------------------------------------------------------------|
E|------------------------------------------------------------------------------------------------|

G|------------------------------------------------------------------------------------------------|
D|----------3-------6---------------3-------6-----------------------3-----------------------3-----|
A|4-----------------------4-----------------------1---------4-------------1---------4-------------|
E|------------------------------------------------------------------------------------------------|

G|----------3-------6---------------5-------8-----------------------------------------------------|
D|4-----------------------6---------------------------------3-------6-----------------------------|
A|-------------------------------------------------4----------------------4-----------1-----3-----|
E|------------------------------------------------------------------------------4-----------------|

0:36

G|------------------------------------------------------------------------------------------------|
D|----------3-------6---------------3-------6-----------------------3-----------------------3-----|
A|4-----------------------4-----------------------1---------4-------------1---------4-------------|
E|------------------------------------------------------------------------------------------------|

G|----------3-------6---------------3-------6---------------5-------8-----------------------------|
D|4-----------------------4------------------------6----------------------6-----4-----3-----------|
A|------------------------------------------------------------------------------------------6-----|
E|------------------------------------------------------------------------------------------------|

G|------------------------------------------------------------------------------------------------|
D|----------3-------6---------------3-------6-----------------------3-----------------------3-----|
A|4-----------------------4-----------------------1---------4-------------1---------4-------------|
E|------------------------------------------------------------------------------------------------|

G|----------3-------6---------------3-----------------------5-------8-----------------------------|
D|4-----------------------4------------------------6----------------------6-----4-----3-----------|
A|------------------------------------------------------------------------------------------------|
E|------------------------------------------------------------------------------------------------|

G|------------------------------------------------------------------------------------------------|
D|----------3-------6---------------3-------6-----------------------3-----------------------3-----|
A|4-----------------------4-----------------------1---------4-------------1---------4-------------|
E|------------------------------------------------------------------------------------------------|

G|----------3-------6---------------5-------8-----------------------------6-----4----3------------|
D|4-----------------------6---------------------------------3-------6-----------------------6-----|
A|-------------------------------------------------4----------------------------------------------|
E|------------------------------------------------------------------------------------------------|

1:10


G|----------3-------6---------------3-----------------------3-------6----------------3------6-----|
D|4-----------------------4------------------------4----------------------4-----------------------|
A|------------------------------------------------------------------------------------------------|
E|------------------------------------------------------------------------------------------------|

G|------------------------------------------------------------------------------------------------|
D|------------------------------------------------------------------------------------------------|
A|4-----4-----------------1-----------------------4-----4-----------------1-----------------------|
E|------------------------------------------------------------------------------------------------|

G|----------3-------6---------------3-------6-----------------------6-----------------------6-----|
D|4-----------------------4------------------------4--------7-------------4----------7------------|
A|------------------------------------------------------------------------------------------------|
E|------------------------------------------------------------------------------------------------|

G|------------------------------------------------------------------------------------------------|
D|------------------------------------------------------4-----------------6-----4-----3-----------|
A|------------------------------------------------------------------------------------------6-----|
E|------------------------------------------------------------------------------------------------|

1:34

G|------------------------------------------------------------------------------------------------|
D|----------3-------6---------------3-------6-----------------------3-----------------------3-----|
A|4-----------------------4-----------------------1---------4-------------1---------4-------------|
E|------------------------------------------------------------------------------------------------|

G|----------3-------6---------------3-------6---------------5-------8-----------------------------|
D|4-----------------------4------------------------6----------------------6-----4-----3-----------|
A|------------------------------------------------------------------------------------------6-----|
E|------------------------------------------------------------------------------------------------|

G|------------------------------------------------------------------------------------------------|
D|----------3-------6---------------3-------6-----------------------3-----------------------3-----|
A|4-----------------------4-----------------------1---------4-------------1---------4-------------|
E|------------------------------------------------------------------------------------------------|

G|----------3-------6---------------5-------8-----------------------------------------------------|
D|4-----------------------6---------------------------------3-------6-----------------------------|
A|-------------------------------------------------4----------------------4-----------1-----3-----|
E|------------------------------------------------------------------------------4-----------------|

G|------------------------------------------------------------------------------------------------|
D|----------3-------6---------------3-------6-----------------------3-----------------------3-----|
A|4-------4---------------4-----------------------1---------4-------------1---------4-------------|
E|------------------------------------------------------------------------------------------------|
   
G|----------3-------6---------------3-------6---------------5-------8-----------------------------|
D|4-----------------------4------------------------6----------------------6-----4-----3-----------|
A|------------------------------------------------------------------------------------------6-----|
E|------------------------------------------------------------------------------------------------|

G|------------------------------------------------------------------------------------------------|
D|----------3-------6---------------3-------6-----------------------3-----------------------3-----|
A|4-----------------------4-----------------------1---------4-------------1---------4-------------|
E|------------------------------------------------------------------------------------------------|
   
G|----------3-------6-----|
D|4-----------------------| fades out here.
A|------------------------|
E|------------------------|
Добавлено: 24.07.2015
Вам также может быть интересно:
Другие материалы по этой песне:
  • Аккорды и текст

Страница создана 24.07.2015
http://primanota.ru/the-skyliners/footsteps-chords.htm
Привет, Гость.
Предлагаем пройти революционный курс по гитаре.
Подарок от PrimaNota.Ru, забирай!