PrimaNota.ru - самый крупный в мире бесплатный архив песенных текстов, аккордов, табулатур и нот


The Skints - Tazer Beam - таба, видео

Регистрация Запомнить меня
Войти через:  Facebook Google Twitter Vk Yandex Mail.ru

The Skints - Tazer Beam - таба, видео

Печатать
Просмотров: 88
Авторы: Marcia Richards, Anthony Henry, Jonathan Doyle, Jamie Kyriakides, Joshua Waters Rudge

-------------------------------------------------------------------------------
                             The Skints - Tazer Beam
-------------------------------------------------------------------------------
Tabbed by:
E-mail:

Tuning:EADGBe
Intro;
e|-------------------------------------------------------------------------------------|
B|-------------------------------------------------------------------------------------|
G|-------------------------------------------------------------------------------------|
D|-------------------------------------------------------------------------------------|
A|---------------6-4-4-4-6----------------6-4-------------------6-4-4-4-6--------------|
E|-4-4-4-4-7-6-4--------------4-4-4-7-6-4---------4-4-4-4-7-6-4-------------4-4-4-7-6-4|


Rest of song;
e|-4--4--4--4--------------------------------------------------------------------------|
B|-4--4--5--5--------------------------------------------------------------------------|
G|-4--4--6--6--------------------------------------------------------------------------|
D|-4--4--6--6--------------------------------------------------------------------------|
A|-6--6--4--4--------------------------------------------------------------------------|
E|-4--4--------------------------------------------------------------------------------|
   G#m7  C#m

These chords are repeated for the rest of the song with an upwards strum.
Occasionally, The riff from the intro is repeated.

************************************

| /   slide up
| \   slide down
| h   hammer-on
| p   pull-off
| ~   vibrato
| +   harmonic
| x   Mute note
| b   Bend
| pb  Pre-bend
| br  Bend release
| pbr Pre-bend release
| brb Bend release bend

************************************
Добавлено: 13.12.2015
Вам также может быть интересно:
Другие материалы по этой песне:
  • Аккорды и текст

Страница создана 13.12.2015
http://primanota.ru/the-skints/tazer-beam-chords.htm
Привет, Гость.
Предлагаем пройти революционный курс по гитаре.
Подарок от PrimaNota.Ru, забирай!