PrimaNota.ru - самый крупный в мире бесплатный архив песенных текстов, аккордов, табулатур и нот


The Skints - Mindless - таба, видео

Регистрация Запомнить меня
Войти через:  Facebook Google Twitter Vk Yandex Mail.ru

The Skints - Mindless - таба, видео

Печатать
Просмотров: 196
Уроки эстрадного вокала в Санкт-Петербурге
Song: Mindless
Band: The Skints

Intro:
    C# B A  G# F# G#A  B  
e|------------------------|
B|------------------------|
G|--6--4---------------4--|
D|--6--4-7--6--4--6-7--4--|
A|--4--2-7--6--4--6-7--2--|
E|-------5--4--2--4-5-----|

This is pretty much the rest of the song:
   C#m  B   A   G#m F#m G#m A   B
e|--4---2---5---4---2---4---5---2--|
B|--5---4---5---4---2---4---5---4--|
G|--6---4---6---4---2---4---6---4--|
D|--6---4---7---6---4---6---7---4--|
A|--4---2---7---6---4---6---7---2--|
E|----------5---4---2---4---5------|

Its played in ska strokes.
You can figure out where the stops are, mostly on the F#m.

There's one last bit thats different
which is the 'Never never never gonna be my way' part.
Here the main structure is played once
and then this is played, i think:

   C#m  B   A   G#m F#m G#m C#m C#m
e|--4---2---5---4---2---4---4---4--|
B|--5---4---5---4---2---4---5---5--|
G|--6---4---6---4---2---4---6---6--|
D|--6---4---7---6---4---6---6---6--|
A|--4---2---7---6---4---6---4---4--|
E|----------5---4---2---4----------|

And then at the end
ring out the last three chords:
F#m, G#m, C#m

And thats it.
Добавлено: 24.08.2013
Другие материалы по этой песне:
  • Аккорды и текст

Страница создана 24.08.2013
http://primanota.ru/the-skints/mindless-chords.htm
Привет, Гость.
Предлагаем пройти революционный курс по гитаре.
Подарок от PrimaNota.Ru, забирай!