PrimaNota.ru - самый крупный в мире бесплатный архив песенных текстов, аккордов, табулатур и нот


The Skies Of America - Shine - таба, видео

Регистрация Запомнить меня
Войти через:  Facebook Google Twitter Vk Yandex Mail.ru

The Skies Of America - Shine - таба, видео

Печатать
Просмотров: 207
--------------------------------------
     SHINE - The Skies of America
--------------------------------------
Tabbed by: ZJ07

Note: This is my first tab. I think I may have made the intro a bit harder
than it should be, but the notes sound right to me. It may be easier to play
on a different part of the neck.

**I made this tab for my own reference, so it may not be very easy to read
for others. I thought it would still be helpful to share it anyway.**

Tuning: Standard
Key of: B

Intro:
1 Measure of Drums,

 E. Guitar
   B    E           B       E
e|-----------------|--------------------|
B|-----0---------0-|---0--------------0-|
G|-----------------|--------------------|
D|-------1h2-4-----|-------4--1h2-4-----|
A|-2---------------|-2------------------|
E|-----------------|--------------------|

 (Acoustic guitar enters in background)
   B       E          B        E
e|-------------------|-------------------|
B|------0----------0-|------0----------4-|
G|-------------------|-------------------|
D|---4-----1h2-4-----|---4-----1h2-4-----|
A|-2-----------------|-2-----------------|
E|-------------------|-------------------|

Verse 1:
   B       E           B       E
e|-------------------|-------------------|
B|------0----------0-|------0----------4-|
G|-------------------|----------------x--|
D|---4-----1h2-4-----|---4-----1h2-4-----| x3
A|-2-----------------|-2-----------------|
E|-------------------|-------------------|

   B       E           C#
e|-------------------|------------------|
B|------0----------0-|------------------|
G|-------------------|---4---6----------|
D|---4-----1h2-4-----|-----6-----4-3----|
A|-2-----------------|-4-------4-----4\-|
E|-------------------|------------------|

   B                 G#m     F#
e|-----------------|-----------------|
B|---------4-------|-----------------|
G|---4-------4-----|---4-------3-----|
D|-----4-------4---|-----6-------4---|
A|-2-----2-------2-|-------6-------4-|
E|-----------------|-4-------2-------|

   B                 F#
e|-----------------|-----------------|
B|---------4-------|-----------------|
G|---4-------4-----|---4-----3~--x-x-|
D|-----4-------4---|-----4-------x-x-|
A|-2-----2-------2-|-------4-----x-x-|
E|-----------------|-2---------------|

Chorus:
   E           B
e|-----------------------|
B|-----------------------|
G|-9---9--9--------------|
D|-9---9--9--9-9---9-9-9-| x3
A|-7---7--7--9-9---9-9-9-|
E|-----------7-7---7-7-7-|

   C#
e|------------------|
B|------------------|
G|-------6----------|
D|---4-------4-3----|
A|-4---4---4-----4--|
E|------------------|

 (Repeat Chorus)
   E                     B
e|-----------------------------|
B|-----------------------------|
G|-9---9--9-9--9-9---9-9-9-----|
D|-9---9--9-9--9-9---9-9-9-9---|
A|-7---7--7-7--7-7---7-7-7-9---|
E|-------------------------7---|

Tremolo Part (Divided by measures in 4/4 time):
On:1       1       3
e|----|--|-11-|------------|--|--|-11-|--|
B|----|--|----|----9----12-|--|--|----|--|
G|-11-|--|----|------11----|--|--|----|--|
D|----|--|----|------------|--|--|----|--|
A|----|--|----|------------|--|--|----|--|
E|----|--|----|------------|--|--|----|--|
   1&         1&               1&         1&      4&
e|-------11-|--------------9-|-------11-|-------9------|
B|-----9----|-----9----12----|-----9----|-----9--------|
G|--11------|--11---11-------|--11------|--11------x-x-|
D|----------|----------------|----------|----------x-x-|
A|----------|----------------|----------|----------x-x-|
E|----------|----------------|----------|--------------|

 (Back to Chorus then followed by Instrumental)

Instrumental:
E5 (4 muted strums and end of last B chord measure)
C#5 C#5/D#5 E5 B5 F#5 C#5   B (fades out then back to chorus after 4 muted strums)


Outro:
   B     E                  B       E
e|-------------------|     |--------------------|
B|-----0-----------0-|     |-----0------------4-|
G|-------------------|     |--------------------|
D|-------4-1h2-4-(4)-| x3  |-------4-1h2-4-(4)--|
A|-2-----------------|     |-2------------------|
E|-------------------|     |--------------------|

(repeat outro twice while fading out)
Добавлено: 14.06.2012
Другие материалы по этой песне:
  • Аккорды и текст

Страница создана 14.06.2012
http://primanota.ru/the-skies-of-america/shine-chords.htm
Привет, Гость.
Предлагаем пройти революционный курс по гитаре.
Подарок от PrimaNota.Ru, забирай!