PrimaNota.ru - самый крупный в мире бесплатный архив песенных текстов, аккордов, табулатур и нот


The Sketchbook - Clover - таба, видео

Регистрация Запомнить меня
Войти через:  Facebook Google Twitter Vk Yandex Mail.ru

The Sketchbook - Clover - таба, видео

Печатать
Просмотров: 272
-------------------------------------------------------------------------------
                             Clover - The Sketchbook
-------------------------------------------------------------------------------
Tabbed by: Revyn
E-mail: revyn.ftw@hotmail.com

Tuning: Standart

Intro
e|---------------------------------------------------------------------------|
B|--11--/16-14-------------------------------11--/16-14----------------------|
G|-------------15--13-11-13-13/15-15---11-13------------15--13-11-13-13b-11--|
D|---------------------------------------------------------------------------|
A|---------------------------------------------------------------------------|
E|---------------------------------------------------------------------------|

e|------|-------|-------|-------|------------------------|----------------|
B|------|-------|-------|-------|------------------------|-----7-6-/7--6--|
G|------|-------|--6-6--|--4-4--|--6-6---6--6-6-X-X-X-X--|-----6-6-(6)-6--|
D|------|--4-4--|--6-6--|--4-4--|--6-6---6--6-6-X-X-X-X--|--4--4-4-(4)-4--|
A|--X\--|--4-4--|--4-4--|--2-2--|--4-4---4--4-4-X-X-X-X--|--4-------------|
E|--X\--|--2-2--|-------|-------|------------------------|--2-------------|

                5x
e|----------------|-------------9-9-9-9-9-9-9\--|--------------------------|
B|--X--7-6-/7--6--|--X--7-6-/7------------------|-----7-------6-------6----|
G|--X--6-6-(6)-6--|--X--6-6-(6)-6-6-6-6-6-6-6\--|--8----8--7----7--6----6--|
D|--X--4-4-(4)-4--|--X--4-4-(4)-----------------|--------------------------|
A|----------------|-----------------------------|--------------------------|
E|----------------|-----------------------------|--------------------------|

e|----------|----------------------------|-------------------|
B|-----4----|----------------------------|-------------------|
G|--5----5--|--4--x-x-x-x-x-x-x-x-x-x-x--|--7--x-x-x-x-------|
D|----------|--4--x-x-x-x-x-x-x-x-x-x-x--|--7--x-x-x-x-2--2--|
A|----------|--2--x-x-x-x-x-x-x-x-x-x-x--|--5--x-x-x-x-2--2--|
E|----------|----------------------------|-------------0--0--|

e|---------------|---------------|---------------|--------------|
B|---------------|---------------|---------------|--------------|
G|---------------|---------------|--7--7--7-7-7--|--------------|
D|--7--7--7-7-7--|--2--2--2-2-2--|--7--7--7-7-7--|--7--7--6--6--|
A|--7--7--7-7-7--|--2--2--2-2-2--|--5--5--5-5-5--|--7--7--7--7--|
E|--5--5--5-5-5--|--0--0--0-0-0--|---------------|--5--5--4--4--|

e|---------------|---------------|---------------|---------------|
B|---------------|---------------|---------------|---------------|
G|---------------|---------------|--7--7--7-7-7--|---------------|
D|--4--4--4-4-4--|--2--2--2-2-2--|--7--7--7-7-7--|--7--7--7-7-7--|
A|--4--4--4-4-4--|--2--2--2-2-2--|--5--5--5-5-5--|--7--7--7-7-7--|
E|--2--2--2-2-2--|--0--0--0-0-0--|---------------|--5--5--5-5-5--|

e|---------------|---------------|---------------|--------------|
B|---------------|---------------|---------------|--------------|
G|---------------|---------------|--7--7--7-7-7--|--------------|
D|--7--7--7-7-7--|--2--2--2-2-2--|--7--7--7-7-7--|--7--7--6--6--|
A|--7--7--7-7-7--|--2--2--2-2-2--|--5--5--5-5-5--|--7--7--7--7--|
E|--5--5--5-5-5--|--0--0--0-0-0--|---------------|--5--5--4--4--|

e|---------------|---------------|---------------|-----------|
B|---------------|---------------|---------------|-----------|
G|---------------|---------------|--7--7--7-7-7--|-----------|
D|--4--4--4-4-4--|--2--2--2-2-2--|--7--7--7-7-7--|--7----X\--|
A|--4--4--4-4-4--|--2--2--2-2-2--|--5--5--5-5-5--|--7----X\--|
E|--2--2--2-2-2--|--0--0--0-0-0--|---------------|--5----X\--|

                                                         
......................................................................6x
e|--------|--------|--------|--------------------------|----------------|
B|--------|--------|--------|--------------------------|--X--7-6-/7--6--|
G|--------|--6--6--|--4--4--|--6--6-/\-6--6-6-X-X-X-X--|--X--6-6-(6)-6--|
D|--4--4--|--6--6--|--4--4--|--6--6-/\-6--6-6-X-X-X-X--|--X--4-4-(4)-4--|
A|--4--4--|--4--4--|--2--2--|--4--4-/\-4--4-4-X-X-X-X--|----------------|
E|--2--2--|--------|--------|--------------------------|----------------|

e|-------------9-9-9-9-9-9-9\--|----------------------------------|
B|--X--7-6-/7------------------|-----7-------6-------6-------4----|
G|--X--6-6-(6)-6-6-6-6-6-6-6\--|--8----8--7----7--6----6--5----5--|
D|--X--4-4-(4)-----------------|----------------------------------|
A|-----------------------------|----------------------------------|
E|-----------------------------|----------------------------------|

e|------------------------------|-------------------|
B|------------------------------|-------------------|
G|--4--x-x-x-x-x-x-x-x-x-x-x-x--|--7--x-x-x-x-------|
D|--4--x-x-x-x-x-x-x-x-x-x-x-x--|--7--x-x-x-x-2--2--|
A|--2--x-x-x-x-x-x-x-x-x-x-x-x--|--5--x-x-x-x-2--2--|
E|------------------------------|-------------0--0--|

e|---------------|---------------|---------------|--------------|
B|---------------|---------------|---------------|--------------|
G|---------------|---------------|--7--7--7-7-7--|--------------|
D|--7--7--7-7-7--|--2--2--2-2-2--|--7--7--7-7-7--|--7--7--6--6--|
A|--7--7--7-7-7--|--2--2--2-2-2--|--5--5--5-5-5--|--7--7--7--7--|
E|--5--5--5-5-5--|--0--0--0-0-0--|---------------|--5--5--4--4--|

e|---------------|---------------|---------------|---------------|
B|---------------|---------------|---------------|---------------|
G|---------------|---------------|--7--7--7-7-7--|---------------|
D|--4--4--4-4-4--|--2--2--2-2-2--|--7--7--7-7-7--|--7--7--7-7-7--|
A|--4--4--4-4-4--|--2--2--2-2-2--|--5--5--5-5-5--|--7--7--7-7-7--|
E|--2--2--2-2-2--|--0--0--0-0-0--|---------------|--5--5--5-5-5--|

e|---------------|---------------|---------------|--------------|
B|---------------|---------------|---------------|--------------|
G|---------------|---------------|--7--7--7-7-7--|--------------|
D|--7--7--7-7-7--|--2--2--2-2-2--|--7--7--7-7-7--|--7--7--6--6--|
A|--7--7--7-7-7--|--2--2--2-2-2--|--5--5--5-5-5--|--7--7--7--7--|
E|--5--5--5-5-5--|--0--0--0-0-0--|---------------|--5--5--4--4--|

e|---------------|---------------|-----|
B|---------------|---------------|-----|
G|---------------|---------------|--7--|
D|--4--4--4-4-4--|--2--2--2-2-2--|--7--|
A|--4--4--4-4-4--|--2--2--2-2-2--|--5--|
E|--2--2--2-2-2--|--0--0--0-0-0--|-----|

e|---------------------------------------------------------------------------|
B|--12-14--17--17b-17---14-17-17b--14----------------------------------------|
G|------------------------------------16-14------------14--16-14----------14-|
D|-------------------------------------------16--14-16-----------16-14-16----|
A|---------------------------------------------------------------------------|
E|---------------------------------------------------------------------------|

e|---------------------------------------------------------------------------|
B|--------19----19----19-----19----------------------------------------------|
G|--18-18----18----18-----18----16b--14--------------14-16b-16b-16--14----14-|
D|--------------------------------------16-14--14-16-------------------16----|
A|---------------------------------------------------------------------------|
E|---------------------------------------------------------------------------|

e|------------------------------------------17--19b--19~----|
B|------------17-17-17-17-17-19-19-19-19-19-----------------|
G|---16---18------------------------------------------------|
D|----------------------------------------------------------|
A|----------------------------------------------------------|
E|----------------------------------------------------------|

e|-------------------------------|-------------------------------|--|--|
B|-----3------2------3------2----|-----7------5------3---5--5\---|--|--|
G|--6----6-4----4-4----4-3----3--|--7----7-6----6-4----4-4--4\---|--|--|
D|-------------------------------|-----------------------2--2\---|--|--|
A|-------------------------------|-------------------------------|--|--|
E|-------------------------------|-------------------------------|--|--|

e|-------------|---------------|---------------|---------------|-------------|
B|-------------|---------------|---------------|---------------|-------------|
G|-------------|---------------|---------------|--7--7--7-7-7--|-------------|
D|-------7--7--|--7--7--7-7-7--|--2--2--2-2-2--|--7--7--7-7-7--|--7--7--6--6-|
A|--X\---7--7--|--7--7--7-7-7--|--2--2--2-2-2--|--5--5--5-5-5--|--7--7--7--7-|
E|--X\---5--5--|--5--5--5-5-5--|--0--0--0-0-0--|---------------|--5--5--4--4-|

e|---------------|---------------|---------------|---------------|
B|---------------|---------------|---------------|---------------|
G|---------------|---------------|--7--7--7-7-7--|---------------|
D|--4--4--4-4-4--|--2--2--2-2-2--|--7--7--7-7-7--|--7--7--7-7-7--|
A|--4--4--4-4-4--|--2--2--2-2-2--|--5--5--5-5-5--|--7--7--7-7-7--|
E|--2--2--2-2-2--|--0--0--0-0-0--|---------------|--5--5--5-5-5--|

e|---------------|---------------|-----|-------------------------------------|
B|---------------|---------------|-----|--15--14---12--10---15--14---12--10--|
G|---------------|---------------|--7--|-------------------------------------|
D|--4--4--4-4-4--|--2--2--2-2-2--|--7--|-------------------------------------|
A|--4--4--4-4-4--|--2--2--2-2-2--|--5--|-------------------------------------|
E|--2--2--2-2-2--|--0--0--0-0-0--|-----|-------------------------------------|

e|--------------|
B|--15b--14~~~--|
G|--------------|
D|--------------|
A|--------------|
E|--------------|


************************************

| /   slide up
| \   slide down
| h   hammer-on
| p   pull-off
| ~   vibrato
| +   harmonic
| x   Mute note
| b   Bend
| pb  Pre-bend
| br  Bend release
| pbr Pre-bend release
| brb Bend release bend

************************************

Band: http://thesketchbook.jp/
Song: http://www.youtube.com/watch?v=GJ8w6CvC8Ao
Добавлено: 22.07.2013
Другие материалы по этой песне:
  • Аккорды и текст

Страница создана 22.07.2013
http://primanota.ru/the-sketchbook/clover-chords.htm
Привет, Гость.
Предлагаем пройти революционный курс по гитаре.
Подарок от PrimaNota.Ru, забирай!