PrimaNota.ru - самый крупный в мире бесплатный архив песенных текстов, аккордов, табулатур и нот


The Skallywags - Dont Preach To Me - бас-таба, видео

Регистрация Запомнить меня
Войти через:  Facebook Google Twitter Vk Yandex Mail.ru

The Skallywags - Dont Preach To Me - бас-таба, видео

Печатать
Просмотров: 254
I like to play it both slapping and classic finger style

Verse/Chorus:

G|-----------7---------8----------|
D|----5-------------------- 8--7--|
A|-------5------/3-5-6------------|
E|-3----------------------6--5----|

Bridge at 1:15

G|--------------------------------|--------------------------------|
D|--------------------------------|--------------------------------|
A|-------------5556-6-------------|-------------------3---3--------|
E|-3-3-0-3-3----------------------|-3-3-0-3-3---6665---------------|

2nd Verse

G|-----------------------------|-------------------------------|
D|-----------------------------|-------------------------------|
A|-666666555555----------------|-555555666666------------------|
E|-------------6666666666666---|-------------666666666666------|

Final Chorus

G|------------------------------|
D|------------------------------|
A|--------5--5---66666666-------|
E|--3--3-------------------6/3--| x4

A|------------------------------|
E|------------------------------|
G|--------7--7---88888888-------|
D|--5--5-------------------8/5--| x4
Добавлено: 14.09.2013
Другие материалы по этой песне:
  • Аккорды и текст

Страница создана 14.09.2013
http://primanota.ru/the-skallywags/dont-preach-to-me-chords.htm
Привет, Гость.
Предлагаем пройти революционный курс по гитаре.
Подарок от PrimaNota.Ru, забирай!