PrimaNota.ru - самый крупный в мире бесплатный архив песенных текстов, аккордов, табулатур и нот


The Simpsons - The Simpsons Theme - аккорды и текст, таба, видео

Регистрация Запомнить меня
Войти через:  Facebook Google Twitter Vk Yandex Mail.ru

The Simpsons - The Simpsons Theme - аккорды и текст, таба, видео

Печатать
Просмотров: 387
The Simpsons Theme
The Simpsons
		   ###############################################
#  THE SIMPSONS THEME SONG (Time: -01:18-)     #
#  Written by: Danny Elfman & Alf Clausen      #
#  Tabbed by Rodrigo Marckezini "El Barto" :O) #
#  1/7/03 10:30pm - 4:30am                     #
#  1/8/03 4:30 pm - 6:51pm                     #
#  Email: marckezini@bol.com.br	           #
################################################

Hello everyone!
Ay Caramba! This is a Simpsons Theme song tab!!!!
and myself write its!!!

I hope you enjoy... really!

(Intro)


 (w/volume pedal)
                                                              (2x)
E|---12vvvvvvb/---|--0---0---0vvvvb/--|-- 15>- 15>- 15>- 12>~----|
B|---13vvvvvvb/---|--6---7---8vvvvb/--|-- 15>- 15>- 15>- 12>~----|
G|----------------|--8---9--10vvvvb/--|-- 15>- 15>- 15>- 12>~----|
D|----------------|-------------------|-- 15>- 15>- 15>- 12>~----|
A|----------------|-------------------|--------------------------|
E|----------------|-------------------|--------------------------|
                   "The Simpsons..."                       -00:08-

Grt.2

E|------------12/-|------ 9>----------- 7>---- 9>----------- 7>--|
B|------------13/-|---- 9>- 12>------- 7>--- 9>- 12>------- 7>---|
G|----------------|--- 9>--- 12>----- 7>--- 9>--- 12>----- 7>----|
D|----------------|-- 9>----- 12>--- 7>--- 9>----- 12>--- 7>-----|
A|----------------|- 9>------- 12>- 7>--- 9>------- 12>- 7>------|
E|----------------| 9>---------- 12>---- 9>---------- 12>--------|


      
E|-0------0-2-5-3-0------------|-----------------|-----|----------|
B|-5b-5/1----------1-----------|-----------------|-----|----------|
G|-------------------2-------0-|-0-0-0-2-4-5-----|-----|----------|
D|---------------------4-4-4---|--------------2--|--2--|-2-2-2-2-2|
A|-----------------------------|-------------3-0-|-3-0-|------3---|
E|-----------------------------|-----------------|-----|----------|
                                                            -00:18-


E|-----------------14p12-11p9-9p7-7p5-5p3-3p1|------9-7-----------|
B|4h6-6h8-8h10-10h11-------------------------|0-4-6----4----------|
G|-------------------------------------------|-----------5-2------|
D|-------------------------------------------|-------------------0|
A|-------------------------------------------|--------------4-4-4-|
E|-------------------------------------------|--------------------|
                                                            -00:24-



E|-11p9-9p7-7p6-6p5-5p4-4p3-3p2-|-3-5-9-7----7p5-5p4-5p3-3p2-3p1--|
B|-----10--8---7---6---5---4---3|4--------4-----6---5---4---3---2-|
G|------------------------------|-----------6---------------------|
D|------------------------------|---------------------------------|
A|------------------------------|---------------------------------|
E|------------------------------|---------------------------------|
                                                            -00:31-

  (faster)
E|------------------------------|---0-2-5-3-0---------------------|
B|-----------------7-5-7-5/-----|-1----------1--------------------|
G|--3p2/-5p4/-3p2--5-3-5-3/-----|-------------2..-(saxophone Solo)|
D|-3----5----3------------------|---------------------------------|
A|------------------------------|---------------------------------|
E|------------------------------|---------------------------------|
                                                            -00:36-


E|------------------------5-3-0-5-2-2-2-4--------2-2-4-2-4-4-7-5\-|
B|--------------------4-6------1---------4-2-0--------------------|
G|----------------6-4-------------------------4-2-----------------|
D|--1---1---1--5-7------------------------------------------------|
A|1---1---1-------------------------------------------------------|
E|----------------------------------------------------------------|
                                                            -00:43-


E|-17-15-------16-14----------------------------------------------|
B|-------17-15-------16-14-16-14------------13-11-----7brvvb------|
G|------------------------------16-14--12-14----------8brvvb------|
D|----------------------------------------------------------------|
A|----------------------------------------------------------------|
E|----------------------------------------------------------------|
                                                            -00:53-

                                                                   
E|------------------|-3-5-9-7----7p5-5p4-5p3-3p2-3p1--4-4-5-9-7-12|
B|------------------|4--------4-----6---5---4---3---2-----------12|
G|-1h3-3h5-5h7-8/---|-----------6-------------------------------12|
D|------------------|---------------------------------------------|
A|------------------|---------------------------------------------|
E|------------------|---------------------------------------------|
                                                 "D'Oh"     -01:07-

  (faster)
E|-15p13-13p11-11p9-9p7-7p6-6p5-5p4-4p3-3p2-|- 9>~----- 5>~-------|
B|----14--12--11---10--8---7---6---5---4---3|- 9>~------ 5>~------|
G|------------------------------------------|- 9>~------- 5>~-----|
D|------------------------------------------|- 9>~-------- 5>~----|
A|------------------------------------------|- 9>~--------- 5>~---|
E|------------------------------------------|- 9>~---------- 5>~--|
                                                            -01:11-


E|---0-2-5-3-0------------|---------------------------------------|
B|-1----------1-----------|---------------------------------------|
G|--------------2-------0-|------2----1-1-1-1-3-4-6-6-6!----------|
D|----------------4-4-4---|--0-4----------------------------------|
A|------------------------|---------------------------------------|
E|------------------------|---------------------------------------|
                                                            -01:18-
           #  #  # #  #
        #  ############   P.S: on the solo fo saxophone, improvise!
      # ####HHHHHHHHHH#
   #  ###HHHHHHHHHHHHH#
   ####HHHHHHHHHHHHHHHH#
####HHHHHHHHHHHHHHHHHHH#   remember of the solos of
 ##HHHHHHHHHHHHHHHHHHHH#              Lisa on the episodes!!!!
 ##HHHHHHHHHHHHHHHHHHHHH##
   #HHHHHHHHHHHHHHHHHHHH##
   #HHHHHHHHHHHHHHHHHHHHHH#     use distorcion, chorus and delay....
    ##HHHHHHHHHHHHHHHHH######
    ##HHHHHHHHHHH######      #
      #HHHHHHHH##      #      #
      #HHHHHHH#         ## ## #
       #HHH%HH#         ##    #
       #HHHHHH#   #     ######        Bye! enjoy!!!!!
        #HH%HH#         ##HHHH#
        #HHHHHH##      #HHHHHH#
        ###HHHHHH######HHH####
       #HHkHHHHHHHH#HHHHHHHHH#
       #HkHkHHHHHHHHHHHHHHHHHH#
        ###HHHHHHHHHHHHHHHHHHHH#
         ##HHH###HHHHHHHHHHHHH##
         ##H##MMM#############
         ##H######MH##
         ##HHH#####MHH#
         ##HHHH########
           #HHHHHHH#
            ########
                     Rodrigo R. Marckezini "El Barto"
                                             Brasil 2003     
Добавлено: 24.10.2013
Другие материалы по этой песне:
  • Аккорды и текст

Страница создана 28.02.2012
http://primanota.ru/the-simpsons/simpsons-theme-chords.htm
Привет, Гость.
Предлагаем пройти революционный курс по гитаре.
Подарок от PrimaNota.Ru, забирай!