PrimaNota.ru - самый крупный в мире бесплатный архив песенных текстов, аккордов, табулатур и нот


The Showdown - Six Feet Under - таба, видео

Регистрация Запомнить меня
Войти через:  Facebook Google Twitter Vk Yandex Mail.ru

The Showdown - Six Feet Under - таба, видео

Печатать
Просмотров: 123
Six Feet Under
The Showdown
Temptation Come My Way

Intro:

Guitar 1:
(A)
e-------------------------------------------------------------------|
b-------------------------------------------------------------------|
g---------14--14--14—-12s-10-----9--------10—-9~--------------------|
d—--0--0--12--12--12—-12s--8--0--8--0--0--10--10--------------------|
a-------------------------------------------------------------------|
D-------------------------------------------------------------------|
   Pm---                     pm    pm-------------------------------|


(B)
e-------------------------------------------------------------------|
b-------------------------------------------------------------------|
g---------14--14--14—-12----10-----9--------10—-9~------------------|
d—--0--0--12--12--12—-12--0--8--0--8--0--8--10--10------------------|
a-------------------------------------------------------------------|
D-------------------------------------------------------------------|
   pm---                 pm    pm    pm-----------------------------|


(C)
Reapeat (C)four more times
e-------------------------------------------------------------------|
b-------------------------------------------------------------------|
g---------14--14--14—-12----10-----9--------10—-9~------------------|
d—--0--0--12--12--12—-12--0--8--0--8--0--0--10--10------------------|
a-------------------------------------------------------------------|
D-------------------------------------------------------------------|
   pm---                 pm    pm     pm----------------------------|


Guitar 2: start playing this with guitar one on section (C)
                                 v let 0's ring
e-----------------------------------------------------------------|
b-----------------------------------------------------------------|
g-----------------------------------------------------------------|
d—------------------------------------------3---5---0-------------|
a-------------------------------------------3---5---0-------------|
D-------------------------------------------3---5---0-------------|


   Continued from last measure
e-----------------------------------------------------------------|
b-----------------------------------------------------------------|
g-----------------------------------------------------------------|
d—(0)------------------------------X-\----------------------------|
a-(0)------------------------------X-\----------------------------|
D-(0)------------------------------X-\----------------------------|


Repeat this                             (ph)(ph)
e-----------------------------------------------------------------|
b-----------------------------------------------------------------|
g-----------------------------------------------------------------|
d—--12/--0----0--3--0--7--0--5s-3--0--0---------------------------|
a---12/--0----0--3--0--7—-0--5s-3--0--0—-*3-----------------------|
D---12/--0----0--3--0— 7--0--5s-3--0--0-----*3~-------------------|
             pm    pm          pm---


Verse:

Guitar 1 and 2:
e-------------------------------------------------------------------|
b-------------------------------------------------------------------|
g-----------------------2-----------------------7-------------------|
d—-0--0--0--0--0--3--0--2--0--0--0--0--0--3--0--7-------------------|
a--0--0--0--0--0--3--0--0--0--0--0--0--0--3--0--5-------------------|
D--0--0--0--0--0--3--0-----0--0--0--0--0--3--0----------------------|
  pm------------    pm    pm----------------------------------------|    pm

Guitar 1 and 2:
e-------------------------------------------------------------------|
b-------------------------------------------------------------------|
g-----------------------2-----------------------7-------------------|
d—-0--0--0--0--0--3--0--2--0--0--0--0--0--3--0--7-------------------|
a--0--0--0--0--0--3--0--0--0--0--0--0--0--3--0--5-------------------|
D--0--0--0--0--0--3--0-----0--0--0--0--0--3--0----------------------|
  pm------------    pm    pm----------------------------------------|    pm

Guitar 1 and 2:
e-------------------------------------------------------------------|
b-------------------------------------------------------------------|
g-----------------------2-----------------------7-------------------|
d—-0--0--0--0--0--3--0--2--0--0--0--0--0--3--0--7-------------------|
a--0--0--0--0--0--3--0--0--0--0--0--0--0--3--0--5-------------------|
D--0--0--0--0--0--3--0-----0--0--0--0--0--3--0----------------------|
  pm------------    pm    pm----------------------------------------|    pm

Guitar 1 and 2:
e-------------------------------------------------------------------|
b-------------------------------------------------------------------|
g-----------------------2-------------------------------------------|
d—-0--0--0--0--0--3--0--2--0--0--0--0--0--3--0--0-------------------|
a--0--0--0--0--0--3--0--0--0--0--0--0--0--3--0--0-------------------|
D--0--0--0--0--0--3--0-----0--0--0--0--0--3--0--0-------------------|
  pm------------    pm    pm------------    pm----------------------|

Pre Chorus:

 _ Guitar 1 (Cleanish - Medium to Low Gain)
|e-------------1-------------------3------------------------------|
|b---------------3--------------------5---------------------------|
|g--------3--------3---------5-----------5------------------------|
|d—----3-----3-------3----5-----5-----------5---------------------|
|a--1------------------3------------------------------------------|
|D----------------------------------------------------------------|
|
| Guitar 2 (Heavy Distortion)(All Palm Muted)
|e----------------------------------------------------------------|
|b----------------------------------------------------------------|
|g----------------------------------------------------------------|
|d—-3--3--3--3--3--3--3--3--5--5--5--5--5--5--5--5----------------|
|a--1--1--1--1--1--1--1--1--3--3--3--3--3--3--3--3----------------|
|D----------------------------------------------------------------|
-


 _ Gt 1
|e-------------5-------------------5------------------------------|
|b---------------7--------------------6---------------------------|
|g--------7--------7---------7-----------7------------------------|
|d—----7-----7-------7----7-----7-----------7---------------------|
|a--5------------------5------------------------------------------|
|D----------------------------------------------------------------|
|
|
| Gt 2
|e----------------------------------------------------------------|
|b----------------------------------------------------------------|
|g----------------------------------------------------------------|
|d—-7--7--7--7--7--7--7--7--7--7--7--7--7--7--7--7----------------|
|a--5--5--5--5--5--5--5--5--5--5--5--5--5--5--5--5----------------|
|D----------------------------------------------------------------|
-

 _ Gt 1
|e-------------1-------------------3------------------------------|
|b---------------3--------------------5---------------------------|
|g--------3--------3---------5-----------5------------------------|
|d—----3-----3-------3----5-----5-----------5---------------------|
|a--1------------------3------------------------------------------|
|D----------------------------------------------------------------|
|
|
| Gt2
|e----------------------------------------------------------------|
|b----------------------------------------------------------------|
|g----------------------------------------------------------------|
|d—-3--3--3--3--3--3--3--3--5--5--5--5--5--5--5--5----------------|
|a--1--1--1--1--1--1--1--1--3--3--3--3--3--3--3--3----------------|
|D----------------------------------------------------------------|
-


_  Gt1
|e--------------0-------------------------------------------------|
|b-----------------1----------------------------------------------|
|g--------2-------------------------------------------------------|
|d—----2-----2--------2-------------------------------------------|
|a--0--------------------0----------------------------------------|
|D----------------------------------------------------------------|
|
|
| Gt 2
|e----------------------------------------------------------------|
|b----------------------------------------------------------------|
|g----------------------------------------------------------------|
|d—-7--7--7--7----7~----------------------------------------------|
|a--7--7--7--7----7~----------------------------------------------|
|D--7--7--7--7----7~----------------------------------------------|
-


Chorus: (Both guitars)

          (ph)(ph)
e-----------------------------------------------------------------|
b-----------------------------------------------------------------|
g-----------------------------------------------------------------|
d—--12/--0----0--3--0--7--0--5s-3--0--0---------------------------|
a---12/--0----0--3--0--7—-0--5s-3--0--0—-*3-----------------------|
D---12/--0----0--3--0— 7--0--5s-3--0--0-----*3~-------------------|
             pm    pm    pm       pm---


e-----------------------------------------------------------------|
b-----------------------------------------------------------------|
g-----------------------------------------------------------------|
d—--12/--0----0--0--3--0--5--0--5s-3--0---------------------------|
a---12/--0----0--0--3--0--5—-0--5s-3--0--*3--*3^~-----------------|
D---12/--0----0--0--3--0— 5--0--5s-3--0---------------------------|
             pm---    pm    pm       pm

And repeat a few times.


Then go and do the intro again, verse, pre chorus, and chorus

Here's the solo part (really easy):


     Guitar 1                         (that's 7, 9, 10)
- e-------------------------------------------------------------------|
| b-------------------------------------------------------------------|
| g-------------------------------------------------------------------|
| d—---------------------------------------7--------------------------|
| a--10--9----9--7--9--10--9-10-7-9----7910---------------------------|
| D-------------------------------------------------------------------|
|
|
|   Guitar 2
| e-------------------------------------------------------------------|
| b-------------------------------------------------------------------|
| g-------------------------------------------------------------------|
| d—-2----------------------------------------------------------------|
| a--2----------------------------------------------------------------|
- D--2----------------------------------------------------------------|


     Guitar 1
- e-------------------------------------------------------------------|
| b-------------------------------------------------------------------|
| g----------------------------9--12--11--9---------------------------|
| d—-9----7h9h10p9-7----9--10----------------12--10--12--9------------|
| a-------------------------------------------------------------------|
| D-------------------------------------------------------------------|
|
|
|   Guitar 2
| e-------------------------------------------------------------------|
| b-------------------------------------------------------------------|
| g-------------------------------------------------------------------|
| d—-7--------------------------2-------------------------------------|
| a--7--------------------------2-------------------------------------|
- D--7--------------------------2-------------------------------------|


     Guitar 1                                  (7's 9's and 10's again)
- e-------------------------------------------------------------------|
| b-------------------------------------------------------------------|
| g-------------------------------------------------------------------|
| d—-9h10p9--7--------------7-------------------7---------------------|
| a-------------10-----9-10---10-9-10-7----9-10---10-7----------------|
| D-------------------------------------------------------------------|
|
|
|   Guitar 2
| e-------------------------------------------------------------------|
| b-------------------------------------------------------------------|
| g-------------------------------------------------------------------|
| d—----------------7-------------------------------------------------|
| a-----------------7-------------------------------------------------|
- D-----------------7-------------------------------------------------|


     Guitar 1
     ____________________
     |      fast run     |
- e-------------------------------------------------------------------|
| b------------------------8^10-6~~~~(end solo)-----------------------|
| g-----------------7-9-7---------------------------------------------|
| d—-----7--9--7--9---------------------------------------------------|
| a---10--------------------------------------------------------------|
| D-------------------------------------------------------------------|
|
|
|   Guitar 2
| e-------------------------------------------------------------------|
| b-------------------------------------------------------------------|
| g-------------------------------------------------------------------|
| d—-(7)--------------------------------------------------------------|
| a--(7)--------------------------------------------------------------|
- D--(7)--------------------------------------------------------------|

And the outro:

(A)
e-------------------------------------------------------------------|
b-------------------------------------------------------------------|
g-------------------------------------------------------------------|
d—-0--0----0--0----0--0----0--0-------------------------------------|
a--0--0----0--0----0--0----0--0--------5p3--------------------------|
D--0--0----0--0----0--0----0--0----0h3-----3h5----------------------|
  pm---   pm---  pm----   pm----------------------------------------|
(reapeat 4 times)


          ________
(B)(nh)   |scrape|   (nh)
e--------------x----------------------------------------------------|
b------------x------------------------------------------------------|
g----------x--------------------------------------------------------|
d—--------------------------0--0----0--0----0--0--------------------|
a---------------------------0--0----0--0----0--0------5p3-----------|
D---*3--0---------0--*3--0--0--0----0--0----0--0--0h3-----3h5-------|
       pm        pm     pm------   pm---   pm-----------------------|

repeat and fade

Alright that's it. I don't know whether the rhythm parts for the intro and chorus are 
Those were a pain to try to figure out.


pm     palm mute
h      hammer on
p      pull off
nh     natural harmonic
ph     pinched harmonic
*      harmonic
^      bend
~      vibrato
x\     pick slide
x      mute string
Добавлено: 15.04.2012
Другие материалы по этой песне:

Страница создана 05.04.2012
http://primanota.ru/the-showdown/six-feet-under-chords.htm
Привет, Гость.
Предлагаем пройти революционный курс по гитаре.
Подарок от PrimaNota.Ru, забирай!