PrimaNota.ru - самый крупный в мире бесплатный архив песенных текстов, аккордов, табулатур и нот


The Shocks - More Kicks - таба, видео

Регистрация Запомнить меня
Войти через:  Facebook Google Twitter Vk Yandex Mail.ru

The Shocks - More Kicks - таба, видео

Печатать
Просмотров: 66
                                The Shocks – More Kicks
INTRO
E--7~-7~-7~------|
H--7~-7~-7~------|
G-9b-9b-9b-9-7---|
D--------------9-|
A----------------|
E----------------|

4x
E------------------|
H------------------|
G------------------|
D-9--99--9-7-99999-|
A-9--99--9-7-99999-|
E-7--77--7-5-77777-|

Verse1
2x
E----------------------------------|
H----------------------------------|
G-9999999999999999-----------------|
D-99999999999999999--99--9-7-99999-|
A-77777777777777779--99--9-7-99999-|
E-----------------7--77--7-5-77777-|
P.M.………………………………………

2x
E-----------------------------------|
H-----------------------------------|
G-7-7777779-999999------------------|
D-7-7777779-999999-9--99--9-7-99999-|
A-5-5555557-777777-9--99--9-7-99999-|
E------------------7--77--7-5-77777-|

Verse2
2x
E----------------------------------|
H----------------------------------|
G-9999999999999999-----------------|
D-99999999999999999--99--9-7-99999-|
A-77777777777777779--99--9-7-99999-|
E-----------------7--77--7-5-77777-|
P.M.………………………………………

2x
E-----------------------------------|
H-----------------------------------|
G-7-7777779-999999------------------|
D-7-7777779-999999-9--99--9-7-99999-|
A-5-5555557-777777-9--99--9-7-99999-|
E------------------7--77--7-5-77777-|


Chorus
4x
E-------------------------------------------------|
H-------------------------------------------------|
G-11-11111111111111111111111111119-99999998-------|
D-11-11111111111111111111111111119-99999998-9-999-|
A-9--9-9-9-9-9-9-9-9-9-9-9-9-9-9-7-77777776-9-999-|
E-------------------------------------------7-777-|


E--------------------------------------------------|
H--------------------------------------------------|
G-98-------98------1111111111111111111111111111111-|
D-98-9-999-98-9-9991111111111111111111111111111111-|
A-76-9-999-76-9-9999--9-9-9-9-9-9-9-9-9-9-9-9-9-9--|
E----7-777----7-777--------------------------------|

E-------------------|
H-------------------|
G-12-12121212121211-|
D-12-12121212121211-|
A-10-1010101010109--|
E-------------------|

Post Chorus
2x
E------------------|
H------------------|
G------------------|
D-9--99--9-7-99999-|
A-9--99--9-7-99999-|
E-7--77--7-5-77777-|

Verse3
2x
E----------------------------------|
H----------------------------------|
G-9999999999999999-----------------|
D-99999999999999999--99--9-7-99999-|
A-77777777777777779--99--9-7-99999-|
E-----------------7--77--7-5-77777-|
P.M.………………………………………

2x
E-----------------------------------|
H-----------------------------------|
G-7-7777779-999999------------------|
D-7-7777779-999999-9--99--9-7-99999-|
A-5-5555557-777777-9--99--9-7-99999-|
E------------------7--77--7-5-77777-|


Chorus
4x
E-------------------------------------------------|
H-------------------------------------------------|
G-11-11111111111111111111111111119-99999998-------|
D-11-11111111111111111111111111119-99999998-9-999-|
A-9--9-9-9-9-9-9-9-9-9-9-9-9-9-9-7-77777776-9-999-|
E-------------------------------------------7-777-|


E--------------------------------------------------|
H--------------------------------------------------|
G-98-------98------1111111111111111111111111111111-|
D-98-9-999-98-9-9991111111111111111111111111111111-|
A-76-9-999-76-9-9999--9-9-9-9-9-9-9-9-9-9-9-9-9-9--|
E----7-777----7-777--------------------------------|

E-------------------|
H-------------------|
G-12-12121212121211-|
D-12-12121212121211-|
A-10-1010101010109--|
E-------------------|

Solo

Gitarre1:

2x
E------------------|
H------------------|
G------------------|
D-9--99--9-7-99999-|
A-9--99--9-7-99999-|
E-7--77--7-5-77777-|

2x
E----------------------------------|
H----------------------------------|
G-9999999999999999-----------------|
D-99999999999999999--99--9-7-99999-|
A-77777777777777779--99--9-7-99999-|
E-----------------7--77--7-5-77777-|

2x
E-----------------------------------|
H-----------------------------------|
G-7-7777779-999999------------------|
D-7-7777779-999999-9--99--9-7-99999-|
A-5-5555557-777777-9--99--9-7-99999-|
E------------------7--77--7-5-77777-|

Gitarre2:
E---------------------------------------------------|
H---------------------------------7-77777777777777--|
G------------------------------79b9b99999999999999--|b
D-9--99--9-7-9999--9--99-9-7-99---------------------|
A---------------------------------------------------|
E---------------------------------------------------|

E-7--77--7--------------------7--77--7-------|
H-7--77--7-----7-777777-7---7-7--77--7-------|
G-9b-99b-9b7---9b9999999--9---9b-99b-9b7-9-7-|
D------------9-------------------------------|
A--------------------------------------------|
E--------------------------------------------|

E---------------7776667776-7777777777-7-7-7777666655554444-|
H-777777777777-77776667776-7777777777-7-7-7777666655554444-|
G-999999999999b7-----------9999999999b9-7-7777666655554444-|
D----------------------------------------------------------|
A----------------------------------------------------------|
E----------------------------------------------------------|



Chorus
4x
E-------------------------------------------------|
H-------------------------------------------------|
G-11-11111111111111111111111111119-99999998-------|
D-11-11111111111111111111111111119-99999998-9-999-|
A-9--9-9-9-9-9-9-9-9-9-9-9-9-9-9-7-77777776-9-999-|
E-------------------------------------------7-777-|


E--------------------------------------------------|
H--------------------------------------------------|
G-98-------98------1111111111111111111111111111111-|
D-98-9-999-98-9-9991111111111111111111111111111111-|
A-76-9-999-76-9-9999--9-9-9-9-9-9-9-9-9-9-9-9-9-9--|
E----7-777----7-777--------------------------------|

E-------------------|
H-------------------|
G-12-12121212121211-|
D-12-12121212121211-|
A-10-1010101010109--|
E-------------------|

Outro
E-----
H-----
G-----
D-9---
A-9---
E-7---

Zu viel Input um mich rum, das macht mich schlaff und dumm
ich brauch n kick
Zu viel Input um mich rum, das macht mich schlaff und dumm
ich brauch n kick

Tag für Tag dieselbe Leier, Häng an der Leine, wo sind meine Eier?

Zu viel Input um mich rum, das macht mich schlaff und dumm
ich brauch n kick
Zu viel Input um mich rum, das macht mich schlaff und krumm
ich brauch n kick

Tag für Tag dieselbe Leier, Häng an der Leine, wo sind meine Eier?

Ich brauch 'n Kick, bla bla bla

3, 4 Alltag marsch, null action, tritt mir in den Arsch
ich brauch n kick

3, 4 Alltag marsch, null action, tritt mir in den Arsch
ich brauch n kick

Häng hier wien Kackvogel ab, doch zum Glück gehts mir auf den Sack

Ich brauch 'n Kick, bla bla bla
Добавлено: 23.09.2013
Вам также может быть интересно:
Другие материалы по этой песне:
  • Аккорды и текст

Страница создана 20.08.2013
http://primanota.ru/the-shocks/more-kicks-chords.htm
Привет, Гость.
Предлагаем пройти революционный курс по гитаре.
Подарок от PrimaNota.Ru, забирай!