PrimaNota.ru - самый крупный в мире бесплатный архив песенных текстов, аккордов, табулатур и нот


The Shadow Of The Sun - Perfectly Flawed - таба, видео

Регистрация Запомнить меня
Войти через:  Facebook Google Twitter Vk Yandex Mail.ru

The Shadow Of The Sun - Perfectly Flawed - таба, видео

Печатать
Просмотров: 80
Perfectly Flawed

VERSE
E|----------------------------------------------------------------|
B|----------------------------------------------------------------|
G|----------------------------------------------------------------|
D|-9x99-7-5x5-7x7-9x9-12-11-9-------------------------------------|
A|-9x99-7-5x5-7x7-9x9-12-11-9-------------------------------------|
E|-7x77-5-3x3-5x5-7x7-10-9—-7-------------------------------------|X2

CHORUS
E|---------------------------------------|-----------------------|
B|---------------------------------------|-----------------------|
G|----6------6-------4-------4-----------|-------66666-44444-----|
D|------6------6-------4-------4---------|-------66666-44444-----|
A|--4------4-------2-------2-------------|-------44444-22222-----|
E|5------5-------3-------3---------------|-------55555-33333-----|

SOLO (THIS IS ALL CURRENT IMPROVE)
  FULL BENDS
E|14^-14^-14p12---------------9h11p9---9h11p9---11h9p11h9^-------|
B|--------------14-12------11^------11^------11^-----------------|
G|-------------------13^-12--------------------------------------|
D|---------------------------------------------------------------|
A|---------------------------------------------------------------|
E|---------------------------------------------------------------|

E|9------------------12-12-14-12-12-14-12-12-14p12h14------------|
B|-11p9-11-9---------12-12-14-12-12-14-12-12-14p12h14------------|
G|----------10~10\14~--------------------------------------------|
D|---------------------------------------------------------------|
A|---------------------------------------------------------------|
E|---------------------------------------------------------------|

E|17-14-17-14-17p14h17---15-14-13-11-10-9---|12-9-11--------------|
B|--------------------19-15-14-13-13-12-11--|--------12-----------|
G|------------------------------------------|---------------------|
D|------------------------------------------|---------------------|
A|------------------------------------------|---------------------|
E|------------------------------------------|---------------------|X2
END WITH SOLO
Добавлено: 09.07.2012
Вам также может быть интересно:
Другие материалы по этой песне:
  • Аккорды и текст

Страница создана 09.07.2012
http://primanota.ru/the-shadow-of-the-sun/perfectly-flawed-chords.htm
Привет, Гость.
Предлагаем пройти революционный курс по гитаре.
Подарок от PrimaNota.Ru, забирай!