PrimaNota.ru - самый крупный в мире бесплатный архив песенных текстов, аккордов, табулатур и нот


The Seeking - Yours Forever - таба, видео

Регистрация Запомнить меня
Войти через:  Facebook Google Twitter Vk Yandex Mail.ru

The Seeking - Yours Forever - таба, видео

Печатать
Просмотров: 121
This song is in Drop C (CGCFAD)

This tab does not include the solo

Guitar 1: Rhytm
Guitar 2: Lead

The Seekings official website: http://theseekingband.com/


Intro/verse
Guitar 1
D|------------------------------------------------------------------|
A|------------------------------------------------------------------|
F|------------------------------------------------------------------|
C|--99999--------55555----7-7---------------------------------------|
G|--99999--------55555----7-7---------------------------------------|
C|--99999--------55555----7-7---------------------------------------|x4

Verse
Guitar 2
D|------------------------------------------------------------------|
A|------------------------------------------------------------------|
F|-------7-6------7-6------7-6------7-9-----------------------------|
C|--5-7-9----5-7-5----5-7-9----5-7-5--------------------------------|
G|------------------------------------------------------------------|
C|------------------------------------------------------------------|x3

Pre Chorus
Guitar 1

D|------------------------------------------------------------------|
A|------------------------------------------------------------------|
F|------------------------------------------------------------------|
C|--5-555-5---------7-----------------------------------------------|
G|--5-555-5---------7-----------------------------------------------|
C|--5-555-5--9-999--7-----------------------------------------------|x4

Pre Chorus
Guitar 2
D|------------------------------------------------------------------|
A|------------------------------------------------------------------|
F|------------------------------------------------------------------|
C|----77-777-77-11-11-14-14-14b-9-----------------------------------|
G|------------------------------------------------------------------|
C|------------------------------------------------------------------|x4
Last time you play the Pre-Chorus, it ends like this
D|------------------------------------------------------------------|
A|------------------------------------------------------------------|
F|---------------------------15151515-------------------------------|
C|---77-777-77-11-11-14-14---18181818-------------------------------|
G|------------------------------------------------------------------|
C|------------------------------------------------------------------|

Chorus
Guitar 1
D|------------------------------------------------------------------|
A|------------------------------------------------------------------|
F|------------------------------------------------------------------|
C|--55555555-77777777-99999999-77777777-----------------------------|
G|--55555555-77777777-99999999-77777777-----------------------------|
C|--55555555-77777777-99999999-77777777-----------------------------|

D|------------------------------------------------------------------|
A|------------------------------------------------------------------|
F|-----------------------------77777777-----------------------------|
C|--55555555-77777777-99999999-77777777-----------------------------|
G|--55555555-77777777-99999999-55555555-----------------------------|
C|--55555555-77777777-99999999--------------------------------------|x2

D|------------------------------------------------------------------|
A|------------------------------------------------------------------|
F|------------------------------------------------------------------|
C|--55555555555555-7777777777777------------------------------------|
G|--55555555555555-7777777777777------------------------------------|
C|--55555555555555-7777777777777------------------------------------|

Chorus
Guitar 2
D|------------------------------------------------------------------|
A|-10101010101010101010101010---------------------------------------|
F|-7-7-7-7-7-7-7-7-7-7-7-7-7----------------------------------------|
C|------------------------------------------------------------------|
G|------------------------------------------------------------------|
C|------------------------------------------------------------------|
I don't know how many times you strum this but you'll figure out how long by listening to the song

D|------------------------------------------------------------------|
A|------------------------------------------------------------------|
F|---1414141414141414-99999999-1919191918181818-14141414-9999-------|
C|------------------------------------------------------------------|
G|------------------------------------------------------------------|
C|------------------------------------------------------------------|

D|------------------------------------------------------------------|
A|--101010101010101010----------------------------------------------|
F|--7-7-7-7-7-7-7-7-7-----------------------------------------------|
C|------------------------------------------------------------------|
G|------------------------------------------------------------------|
C|------------------------------------------------------------------|

Verse
Guitar 1
D|------------------------------------------------------------------|
A|------------------------------------------------------------------|
F|------------------------------------------------------------------|
C|--99999--------55555----7-7---------------------------------------|
G|--99999--------55555----7-7---------------------------------------|
C|--99999--------55555----7-7---------------------------------------|x5

Verse
Guitar 2
D|------------------------------------------------------------------|
A|------------------------------------------------------------------|
F|-------7-6------7-6------7-6------7-9-----------------------------|
C|--5-7-9----5-7-5----5-7-9----5-7-5--------------------------------|
G|------------------------------------------------------------------|
C|------------------------------------------------------------------|x5

Pre Chorus
Guitar 1

D|------------------------------------------------------------------|
A|------------------------------------------------------------------|
F|------------------------------------------------------------------|
C|--5-555-5---------7-----------------------------------------------|
G|--5-555-5---------7-----------------------------------------------|
C|--5-555-5--9-999--7-----------------------------------------------|x4

Pre Chorus
Guitar 2
D|------------------------------------------------------------------|
A|------------------------------------------------------------------|
F|------------------------------------------------------------------|
C|----77-777-77-11-11-14-14-14b-9-----------------------------------|
G|------------------------------------------------------------------|
C|------------------------------------------------------------------|

D|------------------------------------------------------------------|
A|------------------------------------------------------------------|
F|---------------------------15151515-------------------------------|
C|---77-777-77-11-11-14-14---18181818-------------------------------|
G|------------------------------------------------------------------|
C|------------------------------------------------------------------|


Chorus
Guitar 1
D|------------------------------------------------------------------|
A|------------------------------------------------------------------|
F|------------------------------------------------------------------|
C|--55555555-77777777-99999999-77777777-----------------------------|
G|--55555555-77777777-99999999-77777777-----------------------------|
C|--55555555-77777777-99999999-77777777-----------------------------|

D|------------------------------------------------------------------|
A|------------------------------------------------------------------|
F|-----------------------------77777777-----------------------------|
C|--55555555-77777777-99999999-77777777-----------------------------|
G|--55555555-77777777-99999999-55555555-----------------------------|
C|--55555555-77777777-99999999--------------------------------------|x2

D|------------------------------------------------------------------|
A|------------------------------------------------------------------|
F|------------------------------------------------------------------|
C|--55555555555555-7777777777777------------------------------------|
G|--55555555555555-7777777777777------------------------------------|
C|--55555555555555-7777777777777------------------------------------|

Chorus
Guitar 2
D|------------------------------------------------------------------|
A|-10101010101010101010101010---------------------------------------|
F|-7-7-7-7-7-7-7-7-7-7-7-7-7----------------------------------------|
C|------------------------------------------------------------------|
G|------------------------------------------------------------------|
C|------------------------------------------------------------------|
I don't know how many times you strum this but you'll figure out how long by listening to the song

D|------------------------------------------------------------------|
A|------------------------------------------------------------------|
F|---1414141414141414-99999999-1919191918181818-14141414-9999-------|
C|------------------------------------------------------------------|
G|------------------------------------------------------------------|
C|------------------------------------------------------------------|

D|------------------------------------------------------------------|
A|--101010101010101010----------------------------------------------|
F|--7-7-7-7-7-7-7-7-7-----------------------------------------------|
C|------------------------------------------------------------------|
G|------------------------------------------------------------------|
C|------------------------------------------------------------------|

Bridge/Guitar solo
Guitar 1
D|------------------------------------------------------------------|
A|------------------------------------------------------------------|
F|------------------------------------------------------------------|
C|-------4-----------------9-------7--------------------------------|
G|------------------------------------------------------------------|
C|--5-555-5-0-000-000-9-999-9-7-777-7-------------------------------| x4
Sorry, but I have not tabbed the solo

Pre Chorus
Guitar 1

D|------------------------------------------------------------------|
A|------------------------------------------------------------------|
F|------------------------------------------------------------------|
C|--5-555-5---------7-----------------------------------------------|
G|--5-555-5---------7-----------------------------------------------|
C|--5-555-5--9-999--7-----------------------------------------------|x4

Pre Chorus
Guitar 2
This part is played with less distortion. More of a clean tone
D|------------------------------------------------------------------|
A|------------------------------------------------------------------|
F|------------------------------------------------------------------|
C|----77-777-77-11-11-14-14-14b-9-----------------------------------|
G|------------------------------------------------------------------|
C|------------------------------------------------------------------|

D|------------------------------------------------------------------|
A|------------------------------------------------------------------|
F|----------------------------15151515------------------------------|
C|---77-777-77-11-11-14-14---18181818-------------------------------|
G|------------------------------------------------------------------|
C|------------------------------------------------------------------|

Chorus
Guitar 1
D|------------------------------------------------------------------|
A|------------------------------------------------------------------|
F|------------------------------------------------------------------|
C|--55555555-77777777-99999999-77777777-----------------------------|
G|--55555555-77777777-99999999-77777777-----------------------------|
C|--55555555-77777777-99999999-77777777-----------------------------|

D|------------------------------------------------------------------|
A|------------------------------------------------------------------|
F|-----------------------------77777777-----------------------------|
C|--55555555-77777777-99999999-77777777-----------------------------|
G|--55555555-77777777-99999999-55555555-----------------------------|
C|--55555555-77777777-99999999--------------------------------------|x2

D|------------------------------------------------------------------|
A|------------------------------------------------------------------|
F|------------------------------------------------------------------|
C|--55555555555555-7777777777777------------------------------------|
G|--55555555555555-7777777777777------------------------------------|
C|--55555555555555-7777777777777------------------------------------|

Chorus
Guitar 2
D|------------------------------------------------------------------|
A|-10101010101010101010101010---------------------------------------|
F|-7-7-7-7-7-7-7-7-7-7-7-7-7----------------------------------------|
C|------------------------------------------------------------------|
G|------------------------------------------------------------------|
C|------------------------------------------------------------------|
I don't know how many times you strum this but you'll figure out how long by listening to the song

D|------------------------------------------------------------------|
A|------------------------------------------------------------------|
F|---1414141414141414-99999999-1919191918181818-14141414-9999-------|
C|------------------------------------------------------------------|
G|------------------------------------------------------------------|
C|------------------------------------------------------------------|

D|------------------------------------------------------------------|
A|--101010101010101010----------------------------------------------|
F|--7-7-7-7-7-7-7-7-7-----------------------------------------------|
C|------------------------------------------------------------------|
G|------------------------------------------------------------------|
C|------------------------------------------------------------------|

Last part
D|------------------------------------------------------------------|
A|------------------------------------------------------------------|
F|------------------------------------------------------------------|
C|-------4------------------4-----------------4---------------4-----|
G|------------------------------------------------------------------|
C|--5-555-5-0-000-000--5-555-5-0-000-000-5-555-5-000-000-5-555-5-0--|
Добавлено: 03.12.2013
Другие материалы по этой песне:
  • Аккорды и текст

Страница создана 03.12.2013
http://primanota.ru/the-seeking/yours-forever-chords.htm
Привет, Гость.
Предлагаем пройти революционный курс по гитаре.
Подарок от PrimaNota.Ru, забирай!