PrimaNota.ru - самый крупный в мире бесплатный архив песенных текстов, аккордов, табулатур и нот


The Script - The Man Who Cant Be Moved Live - таба, видео

Регистрация Запомнить меня
Войти через:  Facebook Google Twitter Vk Yandex Mail.ru

The Script - The Man Who Cant Be Moved Live - таба, видео

Печатать
Просмотров: 53
The Script - The Man Who Can't Be Moved
Live Version (The song is on the key of G#)
Capo on 3rd Fret 


let ring all

[INTRO]

e-----------------|-----------------|-----------------|-----------------| 
B-----------------|-----------------|-----------------|-----------------|
G-----------------|-----------------|-----0-----2-----|-----0-----2-----|
D-----3-----3-----|-----3-----3-----|---3-----3-----3-|---3-----3-----3-|
A---0-----0-----0-|---0-----0-----0-|-1-----1-----1---|-1-----1-----1---|
E-1-----1-----1---|-0-----0-----0---|-----------------|-----------------|

[VERSE]

e-----------------|-----------------|-----------------|-----------------| 
B-----------------|-----------------|-----------------|-----------------|
G-----------------|-----------------|-----0-----2-----|-----0-----2-----|
D-----3-----3-----|-----3-----3-----|---3-----3-----3-|---3-----3-----3-|
A---0-----0-----0-|---0-----0-----0-|-1-----1-----1---|-1-----1-----1---|
E-1-----1-----1---|-0-----0-----0---|-----------------|-----------------|

[CHORUS]

e-----------------|-----------------|-----------------|-----------------| 
B-----------------|-----------------|-----------------|-----------------|
G-----------------|-----5-----2-----|-----2-----------|-----2-----0-----|
D-----3-----3-----|---2-----2-----2-|---0-----0-2---0-|---3-----3-----3-|
A---0-----0-----0-|-3-----3-----3---|-----------------|-1-----1-----1---|
E-1-----1-----1---|-----------------|-3-----3-----3---|-----------------|

[BRIDGE]

e-----------------|-----------------|-----------------|-----------------| 
B-----------------|-----1-----------|-----------------|-----------------|
G-----7-----5-----|-----------2-----|-----2-----0-----|-----3-----2-----|
D---0-----0-----0-|---0-----0-----0-|---0-----0-----0-|---0-----0-----0-|
A-5-----5-----5---|-1-----1-----1---|-3-----3-----3---|-----------------|
E-----------------|-----------------|-----------------|-3-----3-----3---|

[PRE CHORUS]

e-----------------|-----------------|-----------------|-----------------| 
B-----------------|-----------------|-----------------|-----------------|
G-----2-----2-----|-----5-----5-----|-----2-----2-----|-----5-----5-----|
D---3-----3-----3-|---5-----5-----5-|---3-----3-----3-|---5-----5-----5-|
A-1-----1-----1---|-3-----3-----3---|-1-----1-----1---|-3-----3-----3---|
E-----------------|-----------------|-----------------|-----------------|

e-----------------|-----------------|-----------------|-----------------| 
B-----------------|-----------------|-----------------|-----------------|
G-----2-----2-----|-----5-----5-----|-----2-----2-----|-----2-----2-----|
D---3-----3-----3-|---5-----5-----5-|---0-----0-----0-|---0-----0-----0-|
A-1-----1-----1---|-3-----3-----3---|-----------------|-----------------|
E-----------------|-----------------|-3-----3-----3---|-3-----3-----3---|

e-----------------|-----------------|
B-----0-----0-----|-----4-----4-----|
G---0-----0-----0-|---0-----0-----0-|
D-----------------|-----------------|
A-----------------|-----------------|
E-3-----3-----3---|-3-----3-----3---|

So here's how it goes:
[INTRO]
[VERSE]   X 4
[CHORUS]  X 3
[INTRO]
[VERSE]   X 2
[CHORUS]  X 4
[BRIDGE]  X 2
[PRE CHORUS]
[CHORUS]  X 4
[INTRO]

Tabbed off the BBC live session
-Abel was Here- 
Добавлено: 04.04.2016
Другие материалы по этой песне:
  • Аккорды и текст

Страница создана 04.04.2016
http://primanota.ru/the-script/man-who-cant-be-moved-live-chords.htm
Привет, Гость.
Предлагаем пройти революционный курс по гитаре.
Подарок от PrimaNota.Ru, забирай!