PrimaNota.ru - самый крупный в мире бесплатный архив песенных текстов, аккордов, табулатур и нот


The Script - Kaleidoscope - текст песни, бас-таба, видео

Регистрация Запомнить меня
Войти через:  Facebook Google Twitter Vk Yandex Mail.ru

The Script - Kaleidoscope - текст песни, бас-таба, видео

Печатать
Просмотров: 230
Уроки эстрадного вокала в Санкт-Петербурге
Авторы: Mark Sheehan, Danny O’Donoghue

Artist: The Script
Song: Kaleidoscope
Album: #3
Tuning: EADG (Standard)

Come In 0:20 (Give me highs, Give me lows...)

Intro/verse

G|----------------------------------------------------------------|
D|--------------------------------------4--------------4----------| X4
A|--------------------------------5-5-7----------5-5-7------------|
E|5-5-5-5-5-5-5-5-7-7-7-7-7-7-7-7---------------------------------|

Chorus (With You....)                   Can Play This Instead
                                         |               |
G|-----------------------------------(7-77-7-7)------(7-77-7-7)---|
D|----7-77-7-7--------9-99-9-9--------7-77-7-7--------7-77-7-7----| X3
A|--------------------------------5-5-------------5-5-------------|
E|5-5-------------7-7---------------------------------------------|

Intro/Verse (Give Me Love..)


G|----------------------------------------------------------------|
D|--------------------------------------4--------------4----------| X4
A|--------------------------------5-5-7----------5-5-7------------|
E|5-5-5-5-5-5-5-5-7-7-7-7-7-7-7-7---------------------------------|

Chorus (With You....)                   Can Play This Instead
                                         |               |
G|-----------------------------------(7-77-7-7)------(7-77-7-7)---|
D|----7-77-7-7--------9-99-9-9--------7-77-7-7--------7-77-7-7----| X3
A|--------------------------------5-5-------------5-5-------------|
E|5-5-------------7-7---------------------------------------------|

Bridge (Straight after second chorus)

G|----------------------------------------------------------------|
D|------------------------------4-4-4-4-4-4-4-7---------------7---|
A|------------4-5-5-5-5-5-5-5-7-----------------7-7-7-7-7-7-7-----| 
E|7-7-7-7-7-7-----------------------------------------------------|  
                                                                     x2
G|----------------------------------------------------------------|   
D|----------------------------7-4-4-4-4-4-4-4-9---------------7---|
A|------------4-5-5-5-5-5-5-5-------------------7-7-7-7-7-7-7-----|
E|7-7-7-7-7-7-----------------------------------------------------|

Chorus (With You....)                   Can Play This Instead
                                         |               |
G|-----------------------------------(7-77-7-7)------(7-77-7-7)---|
D|----7-77-7-7--------9-99-9-9--------7-77-7-7--------7-77-7-7----| X6
A|--------------------------------5-5-------------5-5-------------|
E|5-5-------------7-7---------------------------------------------|

Order:
Intro/verse X4
Chorus X3
Intro/verse X4
Chorus X3
Bridge X2
Chorus X6
Добавлено: 30.07.2013
Другие материалы по этой песне:
  • Аккорды и текст

Страница создана 30.07.2013
http://primanota.ru/the-script/kaleidoscope-chords.htm
Привет, Гость.
Предлагаем пройти революционный курс по гитаре.
Подарок от PrimaNota.Ru, забирай!