PrimaNota.ru - самый крупный в мире бесплатный архив песенных текстов, аккордов, табулатур и нот


The Sadies - So Much Blood - аккорды и текст, видео

Регистрация Запомнить меня
Войти через:  Facebook Google Twitter Vk Yandex Mail.ru

The Sadies - So Much Blood - аккорды и текст, видео

Печатать
Просмотров: 54
So Much Blood
The Sadies
So Much Blood 
The Sadies, Internal Sounds

Intro: G D Bm D
        
D                  G         D
all my nightmares have come true
                  Bm
my days are torn apart
D                  G         D
shoulda changed my point of view
                     A    Bm  D  A
before it all went dark 

G                      D       A
I can't change what's done is done
G                          D          A
I've seen so much bad blood run
Bm                   D       A  D
I won't speak for anyone but me

D                         G         D
there's nothing there but cold thin air
                      Bm
still I can hear the sound
D                    G        D
of voices that speak sense to me
                        A   Bm D A
from deep within the ground

G                 D         A
I have seen some bad blood run
G                     D         A
I can't change what's done is done
Bm                    D       A
I won't fight for anyone but me

BREAK: D | D G D | D Bm | D G D | D A | Bm D A

G                  D        A
I have seen some bad blood run
G                      D       A
I can't change what's done is done
Bm                  D       A   D
I'm not judging anyone but me


solo over the break chords

   D           G     D                      Bm  
E------------------------------------------|
B------------------------------------------|
G--------2-4-2-------2-4-2-----------------|
D--0-0-4-------4-0-4-------4-2-0-----------|
A--------------------------------2-0-2-0-2-|
E------------------------------------------|

   D            G     D         A       Bm D A
E--------------------------------------|
B--------------------------------------|
G-------2-4-2---2-4--------------------|
D-0-0-4-------4-----4-2-0-2-0-2-0-2----|
A--------------------------------------|
E--------------------------------------|

Добавлено: 28.05.2016
Вам также может быть интересно:
Другие материалы по этой песне:
  • Аккорды и текст

Страница создана 28.05.2016
http://primanota.ru/the-sadies/so-much-blood-chords.htm
Привет, Гость.
Предлагаем пройти революционный курс по гитаре.
Подарок от PrimaNota.Ru, забирай!