PrimaNota.ru - самый крупный в мире бесплатный архив песенных текстов, аккордов, табулатур и нот


The Rural Alberta Advantage - The Build - аккорды и текст, видео

Регистрация Запомнить меня
Войти через:  Facebook Google Twitter Vk Yandex Mail.ru

The Rural Alberta Advantage - The Build - аккорды и текст, видео

Печатать
Просмотров: 57
The Build
The Rural Alberta Advantage
-------------------------------------------------------------------------------
                      THE BUILD - The Rural Alberta Advantage
-------------------------------------------------------------------------------
Tabbed by: Pat Malavi
pat.malavi@gmail.com


Capo 4th fret


[Intro and verse riff]
    D              Am    Am7    C              G     Gmaj
e|--2--2-2-3p2-2-0-------3---|-----------------------3-----|
B|--3--3-3-3---3-0-------1---|--1--1-1-1p0-0-0-------3-----|
G|--2------2-------------2---|--0--0-0-0---0-0-------0-----|
D|-----------------2--2--2---|--2------2-------------0-----|
A|-----------------0--0--0---|--3------3-------2--2--2-----|
E|---------------------------|-----------------3--3--3-----|


[Intro]
D  Am  Am7   C  G  Gmaj
D  Am  Am7   C  G  Gmaj


[Verse 1]
D                Am        Am7
Hold me close, I love your hands
C                       G        Gmaj                       
Thunder cracks like the old man's back
D          Am      Am7
We saw the road collapse
C             G      Gmaj
Holding on to our old plans 


[Chorus 1]
Am              Em C         G
  They stole my bag from the car
Am               Em               D
  They stole the shells out of my shoe
Am         Em  C              G
  I had so many plans for the heart
Am         Em         D
  I had so many plans for you


[Verse 2]
D                Am       
Hold me close, I love your hands
C                        G       Gmaj                       
Lightening frightens the old girl again
D                 Am      Am7
She's given about all she can
C             G      Gmaj                       
Hanging on to our old plans


[Chorus 2]
Am              Em C         G
  They stole my bag from the car
Am              Em          D
  They stole everything for you
Am          Em  C             G
  We had so many plans at the start
Am         Em         D
  I had so many plans for you
Добавлено: 16.06.2016
Другие материалы по этой песне:
  • Аккорды и текст

Страница создана 16.06.2016
http://primanota.ru/the-rural-alberta-advantage/build-chords.htm
Привет, Гость.
Предлагаем пройти революционный курс по гитаре.
Подарок от PrimaNota.Ru, забирай!