PrimaNota.ru - самый крупный в мире бесплатный архив песенных текстов, аккордов, табулатур и нот


The Rubens - The Night Is On My Side - аккорды и текст, видео

Регистрация Запомнить меня
Войти через:  Facebook Google Twitter Vk Yandex Mail.ru

The Rubens - The Night Is On My Side - аккорды и текст, видео

Печатать
Просмотров: 159
Уроки эстрадного вокала в Санкт-Петербурге
The Night Is On My Side
The Rubens
-------------------------------------------------------------------------------
                             THE NIGHT IS ON MY SIDE - The Rubens
-------------------------------------------------------------------------------
Tabbed by: ericamcn

Tuning: standard

intro  (x2)
e|---------------------------------------------------------------------------|
B|---------------------------------------------------------------------------|
G|---------------------------------------------------------------------------|
D|---------------------------------------------------------------------------|
A|-0-0-0-0-0-0-0-0-0-0-0-0-0-------------------------------------------------|
E|---------------------------3-3-3-------------------------------------------|

Am
The night is on my side

And I'm young enough to fall in love

And be all starry eyed

With anyone I find
Gm
Yeah

Dm
The night is on my side
         F
And it's young enough that for the time being
Am
Time is on my side

e|---------------------------------------------------------------------------|
B|---------------------------------------------------------------------------|
G|---------------------------------------------------------------------------|
D|---------------------------------------------------------------------------|
A|-0h2p0-2p0h2-0h2/3---------------------------------------------------------|
E|---------------------------------------------------------------------------|

Am
She says she loves the moonlight

And the way it pulls the tides

But it's just daylight in disguise

And it will lead to all demise
Gm
Yeah

Dm
The night ain't on your side
            F
And come to think of it
           Am
Neither am I

e|---------------------------------------------------------------------------|
B|---------------------------------------------------------------------------|
G|---------------------------------------------------------------------------|
D|---------------------------------------------------------------------------|
A|-0h2p0-2p0h2-0h2/3-3/5-----------------------------------------------------|
E|---------------------------------------------------------------------------|

Dm
I won't say you ain't special
C
But you ain't nothin' new
Dm
Maybe it's just the lateness
C
And just something to do
Dm
Don't say I ain't special
C
Cause there ain't nothin' more cruel
Dm                                   C
We just get lonely at night and it's phoney

But who cares?

                Am
The night is on our side
                F
The night is on our side
                Dm
The night is on our side
        Am
It's on our side

e|---------------------------------------------------------------------------|
B|---------------------------------------------------------------------------|
G|---------0-2-0-------------0h2b--------------------------------------------|
D|-2-2-0-2-------2---2-2-0-2-------------------------------------------------|
A|---------------------------------------------------------------------------|
E|---------------------------------------------------------------------------|

Am
The night is on my side

A suck up bunch just spark with lust

An infamous supply

But darlin' don't shy
Gm
Yeah

Dm
The night is on our side
       F                             Am
As you fall for me I fall for my own lies

e|---------------------------------------------------------------------------|
B|---------------------------------------------------------------------------|
G|---------------------------------------------------------------------------|
D|---------------------------------------------------------------------------|
A|-0h2p0-2p0h2-0h2/3-3/5-----------------------------------------------------|
E|---------------------------------------------------------------------------|

Dm
I won't say you ain't special
C
But you ain't nothin' new
Dm
Maybe it's just the lateness
C
And just something to do
Dm
Don't say I ain't special
C
Cause there ain't nothin' more cruel
Dm                                   C
We just get lonely at night and it's phoney

But who cares?

                Am
The night is on our side
                F
The night is on our side
                Dm
The night is on our side
        Am
It's on our side

Dm
I won't say you ain't special
C
But you ain't nothin' new
Dm
Maybe it's just the lateness
C
And just something to do
Dm
Don't say I ain't special
C
Cause there ain't nothin' more cruel
Dm                                   C
We just get lonely at night and it's phoney

But who cares?

                Am
The night is on our side
                F
The night is on our side
                Dm
The night is on our side
        Am
It's on our side

                                 (x2)
e|---------------------------------------------------------------------------|
B|---------------------------------------------------------------------------|
G|---------0-2-0-------------0h2b--------------------------------------------|
D|-2-2-0-2-------2---2-2-0-2-------------------------------------------------|
A|---------------------------------------------------------------------------|
E|---------------------------------------------------------------------------|
Добавлено: 20.05.2016
Другие материалы по этой песне:
  • Аккорды и текст

Страница создана 20.05.2016
http://primanota.ru/the-rubens/night-is-on-my-side-chords.htm
Привет, Гость.
Предлагаем пройти революционный курс по гитаре.
Подарок от PrimaNota.Ru, забирай!