PrimaNota.ru - самый крупный в мире бесплатный архив песенных текстов, аккордов, табулатур и нот


The Royal Concept - D-d-dance - аккорды и текст, бас-таба, видео

Регистрация Запомнить меня
Войти через:  Facebook Google Twitter Vk Yandex Mail.ru

The Royal Concept - D-d-dance - аккорды и текст, бас-таба, видео

Печатать
Просмотров: 161
D-d-dance
The Royal Concept
-------------------------------------------------------------------------------
                             D-D-Dance - The Royal Concept
-------------------------------------------------------------------------------
Tabbed by:Akselforberg
E-mail: akselsforberg@gmail.com

Tuning: EADGBE
   Gm  F  Bb Eb Cm Dm         D#7M   D#6 A# A#7M  
e|-3---1--1--3--3--1----------10-----8---6--5-------|
B|-3---1--3--4--4--3----------8------8---6--6-------|
G|-3---2--3--3--5--2----------8------8---7--7-------|
D|-5---3--3--5--5--0----------8------8---8--8-------|
A|-5---3--1--x--3--x----------x------x---x--x-------|
E|-3---1--1--x--x--x----------x------x---x--x-------|

Intro:
   Gm    F     Bb                                       F                  Gm
e|-x-x---x-x---x--x--x---x--x--x-1-1--x-x--x--x--x-1-1--x-x---x--x--x-1-1--x-x-|
B|-x-x---x-x---3--3--3---3--3--3-3-3--3-3--3--3--3-3-3--1-1---1--1--1-1-1--3-3-|
G|-3-3---2-2---3--3--3---3--3--3-3-3--3-3--3--3--3-3-3--2-2---2--2--2-2-2--3-3-|
D|-5-5---3-3---3--3--3---3--3--3-3-3--3-3--3--3--3-3-3--3-3---3--3--3-3-3--5-5-|
A|-5-5---3-3---1--1--1---1--1--1-x-x--1-1--1--1--1-x-x--3-3---3--3--3-x-x--5-5-|
E|-3-3---1-1---1--1--1---1--1--1-x-x--1-1--1--1--1-x-x--1-1---1--1--1-x-x--3-3-|
   F           Bb                                    F                  Gm
e|-x--x--x-1-1-x--x---x--x--x-1-1--x-x--x--x--x-1-1--x-x--x--x--x-1-1-||-x-x---|
B|-1--1--1-1-1-3--3---3--3--3-3-3--3-3--3--3--3-3-3--1-1--1--1--1-1-1-||-3-3---|
G|-2--2--2-2-2-3--3---3--3--3-3-3--3-3--3--3--3-3-3--2-2--2--2--2-2-2-||-3-3---|
D|-3--3--3-3-3-3--3---3--3--3-3-3--3-3--3--3--3-3-3--3-3--3--3--3-3-3-||-5-5---|
A|-3--3--3-x-x-1--1---1--1--1------1-1--1--1--1------3-3--3--3--3-x-x-||-5-5---|
E|-1--1--1-x-x-1--1---1--1--1------1-1--1--1--1------1-1--1--1--1-x-x-||-3-3---|
                                                             The first verse begins here,
                                                             but you may collaboratively play
                                                             the G minor.
Verse1:
Eb                                 Gm
In a room with both of your rivals
Eb                              Bb F
You would always turn it around
Eb                              Gm
Once you go, once you get started
Eb                                Bm F
Always had that look in your eyes

Verse2:
Eb                                    Gm
You would always reach without trying 
Eb                                  Bb F
I didn't spend this time to fall out 
Eb                                     Gm
Watch me take my chance on the weekends 
Eb                                   Bb F
But you could always read me by heart 

Bridge1:
Eb                             
I know you're still green but I'll 
Cm                             Bb
Start you a scene that you can write about 
F
When you come around 
Eb                  F               Eb           F
I know you're still green girl I'll start you a scene girl 

Refrain:
Bb             Eb           Gm         F
Always on the go, keep your head up now 
                                         Na-na-not quite that high 
Bb                             F
D-d-dance dance dance till you get it right 
Eb             Cm                      F
Always on the go, keep your head up now 

Verse3:
Eb                                   Gm
You would window-shop just to heal up 
Eb                               Bb F
You would always question my kind 
Eb                                 Gm
Watch you go watch how you run off 
Eb                             Gm Bb
Watch you go watch you get back 

Bridge2:
Eb                                 Cm
I know you're still green but I'll let you go queen on me 
Bb     F
25, Enough tonight! 
Eb                  F               Eb         F
I know you're still green girl I'll let you go queen girl 

Refrain:
Bb             Eb           Gm         F
Always on the go, keep your head up now 
                                         Na-na-not quite that high 
Bb                             F
D-d-dance dance dance till you get it right 
Eb             Cm                      F
Always on the go, keep your head up now 

Interlude:
Eb F 
(Eb for 3,5 bars, F the third beat in the 4th bar)

Bb            Eb                     F
Always on the go, keep your head up now 
    Dm                         Eb
D-d-dance dance dance till you get it right 
    F                          Eb
D-d-dance dance dance till you get it right
    Dm                         Eb
D-d-dance dance dance till you get it right 
    F                          Eb
D-d-dance dance dance till you get it right
    Dm                         Eb 
D-d-dance dance dance, d-d-dance dance 
    F                          Eb                         
D-d-dance dance dance dance till you get it right 
    Dm                         Eb
D-d-dance dance dance, d-d-dance dance 
    F
D-d-dance d-d-dance d-d-dance d-d-d dance dance dance!

Interlude:
The perpendicular lines represent how many eighth notes the chord is played for.
   D#7M/A#        D#6      D#7M/A#        A#                      A#7M        Bb
   |  |  |  |  |  |  |  |  |  |  |  |  |  |  |  |  |  |  |  |  |  |  |  |  |  |  |  |  |  |  |  |  |
e|-10-------------8--------10-------------6-----------------------5-----------1--------------------|
B|-8--------------8--------8--------------6-----------------------6-----------3--------------------|
G|-8--------------8--------8--------------7-----------------------7-----------3--------------------|
D|-8--------------8--------8--------------8-----------------------8-----------3--------------------|
A|-x--------------x--------x--------------x-----------------------x-----------x--------------------|
E|-x--------------x--------x--------------x-----------------------x-----------x--------------------|

Refrain:

Bb             Eb           Gm         F
Always on the go, keep your head up now 
                                         Na-na-not quite that high 
Bb                             F
D-d-dance dance dance till you get it right 
Eb             Cm                      F
Always on the go, keep your head up now 

I said ah!
Bb             Eb           Gm         F
Always on the go, keep your head up now 
                                         Na-na-not quite that high 
Bb                             F
D-d-dance dance dance till you get it right 
Eb             Cm                      F    Cm Dm Bb
Always on the go, keep your head up now 
Добавлено: 01.01.2016
Другие материалы по этой песне:
  • Аккорды и текст

Страница создана 31.07.2015
http://primanota.ru/the-royal-concept/d-d-dance-chords.htm
Привет, Гость.
Предлагаем пройти революционный курс по гитаре.
Подарок от PrimaNota.Ru, забирай!