PrimaNota.ru - самый крупный в мире бесплатный архив песенных текстов, аккордов, табулатур и нот


The Rosebuds - In My Teeth - таба, видео

Регистрация Запомнить меня
Войти через:  Facebook Google Twitter Vk Yandex Mail.ru

The Rosebuds - In My Teeth - таба, видео

Печатать
Просмотров: 79
Авторы: The Rosebuds

-------------------------------------------------------------------------------
                             In my teeth - The Rosebuds
-------------------------------------------------------------------------------
Tabbed by:Ilikekfc

Tuning:Standard

Intro:

Gm F Eb X2

Gm                                       F       Eb
We were smoke on a roof slim knight of a naked fear
Gm                                                 F      Eb     
On the corners alone we patterned with cold in the quiet life
F        
Cut my throat/Karma throw
Eb                Cm
A shapeless mess [ho'oh --]
    F      Gm
Somebody's kind
    F      Gm
Somebody's mess




           Eb              
And you found a way to see me
Cm
I hold you here in my teeth
Gm                              F
I want to wear my love with arms

          Eb
And you found a way to see me
Cm 
I hold you here in my teeth
Gm                              F
I want to wear my love with arms

         Eb            
And you found a way to see me
Cm
I hold you here in my teeth
Gm                              F
I want to wear my love with arms

        Eb                   Cm
And you found a way to see me
F        Gm
With somebody else
F         Gm
In case I felt



e|---------------------------------------------------------------------------|
B|---------------------------------------------------------------------------|
G|--10--7------7-7-5-3-5-3-----------3--5p3---3-5-7--------------------------|
D|-------------------------5-----3-5--------5--------------------------------|
A|---------------------------------------------------------------------------|
E|---------------------------------------------------------------------------|

This part's 100% percent. 
e|---------------------------------------------------------------------------|
B|---------------------------------------------------------------------------|
G|---7p5-3-5-3---------------------------------------------------------------|
D|-------------5--0h3--5----5p3---3------------------------------------------|
A|------------------------------5----5p3---3---------------------------------|
E|---------------------------------------6-----6p3-1-3-----------------------|



The rest of the song repeats the verse and chorus chords. 


************************************

| /   slide up
| \   slide down
| h   hammer-on
| p   pull-off
| ~   vibrato
| +   harmonic
| x   Mute note
| b   Bend
| pb  Pre-bend
| br  Bend release
| pbr Pre-bend release
| brb Bend release bend

************************************
Добавлено: 06.06.2016
Другие материалы по этой песне:
  • Аккорды и текст

Страница создана 06.06.2016
http://primanota.ru/the-rosebuds/in-my-teeth-chords.htm
Привет, Гость.
Предлагаем пройти революционный курс по гитаре.
Подарок от PrimaNota.Ru, забирай!