PrimaNota.ru - самый крупный в мире бесплатный архив песенных текстов, аккордов, табулатур и нот


The Rose Of Avalanche - Who Cares - таба, видео

Регистрация Запомнить меня
Войти через:  Facebook Google Twitter Vk Yandex Mail.ru

The Rose Of Avalanche - Who Cares - таба, видео

Печатать
Просмотров: 90
Уроки эстрадного вокала в Санкт-Петербурге
-------------------------------------------------------------------------------
                          Who Cares - Rose of Avalanche
-------------------------------------------------------------------------------

Tabbed by: Maya L T


This is most of the song.

e|---------------------------------------------------------------------------|
B|---------------------------------------------------------------------------|
G|---------------------------------------------------------------------------|
D|-------0-------0-------0-------0-------2-------2-------0-------0-----------| Repeat
A|---2-------2-------0-------0-------4-------4-------2-------2---------------|
E|---------------------------------------------------------------------------|

e|---------------------------------------------------------------------------|
B|---------------------------------------------------------------------------|
G|-----------------------------9---9---11---11---14---13---------------------|
D|---9---9---12---11---7---9-------------------------------------------------| Repeat
A|---------------------------------------------------------------------------|
E|---------------------------------------------------------------------------|


That's pretty much it. Enjoy!
Добавлено: 03.12.2015
Вам также может быть интересно:
Другие материалы по этой песне:
  • Аккорды и текст

Страница создана 03.12.2015
http://primanota.ru/the-rose-of-avalanche/who-cares-chords.htm
Привет, Гость.
Предлагаем пройти революционный курс по гитаре.
Подарок от PrimaNota.Ru, забирай!