PrimaNota.ru - самый крупный в мире бесплатный архив песенных текстов, аккордов, табулатур и нот


The Rose Garden - Im Only Second - бас-таба, видео

Регистрация Запомнить меня
Войти через:  Facebook Google Twitter Vk Yandex Mail.ru

The Rose Garden - Im Only Second - бас-таба, видео

Печатать
Просмотров: 48
Tabbed by: 6METAL6BASSIST6
E-mail: petergriffinav@gmail.com

Tuning: EADG

G|------------------------------------------------------------------------|
D|------------------4-----------------2-----------------0-----------------|
A|------------------------------------------------------------------------|
E|------------------------------------------------------------------------|

G|------------------------------------------------------------------------|
D|------------------0-----------------0-----------------0-----2-----4-----|
A|3-----------------------------------------------------------------------|
E|------------------------------------------------------------------------|

0:08

G|------------------------------------------------------------------------|
D|5-----------------0-----------------5-----------------5-----------------|
A|------------------------------------------------------------------------|
E|------------------------------------------------------------------------|

G|------------------------------------------------------------------------|
D|3-----2-----0-----------2-----4-----5-----------------0-----------------|
A|------------------3-----------------------------------------------------|
E|------------------------------------------------------------------------|

G|------------------------------------------------------------------------|
D|5-----------------0-----------------5-----------------5-----------------|
A|------------------------------------------------------------------------|
E|------------------------------------------------------------------------|

G|------------------------------------------------------------------------|
D|------------------2-----------------0-----------------0-----2-----4-----|
A|3-----------------------------------------------------------------------|
E|------------------------------------------------------------------------|

0:25

G|------------------------------------------------------------------------|
D|5-----------------5-----5-----------------------------------------0-----|
A|------------------------------------2-----------------2-----------------|
E|------------------------------------------------------------------------|

G|------------------------------------------------------------------------|
D|2-----------------2-----------------------------------2-----------------|
A|------------------------------------3-----------------------------------|
E|------------------------------------------------------------------------|

G|------------------------------------|
D|0-----------------0-----2-----4-----|
A|------------------------------------|
E|------------------------------------|

0:36

G|------------------------------------------------------------------------|
D|5-----------------5-----------------3-----2-----0-----------2-----4-----| x2
A|------------------------------------------------------3-----------------|
E|------------------------------------------------------------------------|

G|------------------------------------------------------------------------|
D|5-----------------5-----------------------------------2-----------------|
A|------------------------------------3-----------------------------------|
E|------------------------------------------------------------------------|

G|------------------------------------------------------------------------|
D|------------------------------------------------------------------------|
A|0-----------------0-----------2-----3-----------------3-----------------|
E|------------------------------------------------------------------------|

G|------------------------------------------------------------------------|
D|5-----------------0-----------------------------------------------------|
A|------------------------------------3-----------------2-----------------|
E|------------------------------------------------------------------------|

G|------------------------------------------------------------------------|
D|0-----------------0-----------------0-----------------0-----2-----4-----|
A|------------------------------------------------------------------------|
E|------------------------------------------------------------------------|

1:00

G|------------------------------------------------------------------------|
D|5-----------------0-----------------5-----------------5-----------------|
A|------------------------------------------------------------------------|
E|------------------------------------------------------------------------|

G|------------------------------------------------------------------------|
D|3-----2-----0-----------2-----4-----5-----------------5-----------------|
A|------------------3-----------------------------------------------------|
E|------------------------------------------------------------------------|

G|------------------------------------------------------------------------|
D|5-----------------0-----------------5-----------------5-----------------|
A|------------------------------------------------------------------------|
E|------------------------------------------------------------------------|

G|------------------------------------------------------------------------|
D|------------------2-----------------0-----------------0-----2-----4-----|
A|3-----------------------------------------------------------------------|
E|------------------------------------------------------------------------|

1:19

G|------------------------------------------------------------------------|
D|5-----------------5-----------------------------------------------0-----|
A|------------------------------------2-----------------2-----------------|
E|------------------------------------------------------------------------|

G|------------------------------------------------------------------------|
D|2-----------------2-----------------------------------2-----------------|
A|------------------------------------3-----------------------------------|
E|------------------------------------------------------------------------|

G|------------------------------------|
D|0-----------------0-----2-----4-----|
A|------------------------------------|
E|------------------------------------|

1:27

G|------------------------------------------------------------------------|
D|5-----------------5-----------------3-----2-----0-----------2-----4-----| x2
A|------------------------------------------------------3-----------------|
E|------------------------------------------------------------------------|

G|------------------------------------------------------------------------|
D|5-----------------5-----------------------------------2-----------------|
A|------------------------------------3-----------------------------------|
E|------------------------------------------------------------------------|

G|------------------------------------------------------------------------|
D|------------------------------------------------------------------------|
A|0-----------------0-----------2-----3-----------------3-----------------|
E|------------------------------------------------------------------------|

G|------------------------------------------------------------------------|
D|5-----------------0-----------------------------------------------------|
A|------------------------------------3-----------------2-----------------|
E|------------------------------------------------------------------------|

G|------------------------------------------------------------------------|
D|0-----------------0-----------------0-----------------0-----2-----4-----|
A|------------------------------------------------------------------------|
E|------------------------------------------------------------------------|

1:52

G|------------------------------------------------------------------------|
D|5-----------------0-----------------5-----------------5-----------------|
A|------------------------------------------------------------------------|
E|------------------------------------------------------------------------|

G|------------------------------------------------------------------------|
D|3-----2-----0-----------2-----4-----5-----------------5-----------------|
A|------------------3-----------------------------------------------------|
E|------------------------------------------------------------------------|

G|------------------------------------------------------------------------|
D|5-----------------0-----------------5-----------------5-----------------|
A|------------------------------------------------------------------------|
E|------------------------------------------------------------------------|

G|------------------------------------------------------------------------|
D|------------------2-----------------0-----------------0-----2-----4-----|
A|3-----------------------------------------------------------------------|
E|------------------------------------------------------------------------|

2:11

G|------------------------------------------------------------------------|
D|5-----------------5-----------------------------------------------0-----|
A|------------------------------------2-----------------2-----------------|
E|------------------------------------------------------------------------|

G|------------------------------------------------------------------------|
D|2-----------------2-----------------------------------2-----------------|
A|------------------------------------3-----------------------------------|
E|------------------------------------------------------------------------|

G|------------------------------------|
D|0-----------------0-----2-----4-----|
A|------------------------------------|
E|------------------------------------|

2:22

G|------------------------------------------------------------------------|
D|5-----------------5-----------------3-----2-----0-----------2-----4-----| x2
A|------------------------------------------------------3-----------------|
E|------------------------------------------------------------------------|

G|------------------------------------------------------------------------|
D|5-----------------5-----------------------------------2-----------------|
A|------------------------------------3-----------------------------------|
E|------------------------------------------------------------------------|

G|------------------------------------------------------------------------|
D|------------------------------------------------------------------------|
A|0-----------------0-----------2-----3-----------------3-----------------|
E|------------------------------------------------------------------------|

G|------------------------------------------------------------------------|
D|5-----------------0-----------------------------------------------------|
A|------------------------------------3-----------------2-----------------|
E|------------------------------------------------------------------------|

G|------------------------------------------------------------------------|
D|0-----------------0-----------------0-----------------0-----2-----4-----|
A|------------------------------------------------------------------------|
E|------------------------------------------------------------------------|

2:47

G|------------------------------------------------------------------------|
D|5-----------------0-----2-----4-----5-----------------5-----------------|
A|------------------------------------------------------------------------|
E|------------------------------------------------------------------------|

G|------------------------------------------------------------------------|
D|3-----2-----0-----------2-----4-----5-----------------5-----------------|
A|------------------3-----------------------------------------------------|
E|------------------------------------------------------------------------|

G|------------------------------------------------------------------------|
D|5-----4-----2-----0-----2-----4-----5-----------------5-----------------|
A|------------------------------------------------------------------------|
E|------------------------------------------------------------------------|

G|------------------------------------------------------------------------|
D|------------------2-----------------0-----------------0-----2-----4-----|
A|3-----------------------------------------------------------------------|
E|------------------------------------------------------------------------|

G|------------------------------------------------------------------------|
D|5-----------------0-----2-----4-----5-----------------5-----------------|
A|------------------------------------------------------------------------|
E|------------------------------------------------------------------------|

G|------------------------------------|
D|------------------2-----------------| fades out here.
A|3-----------------------------------|
E|------------------------------------|
Добавлено: 01.04.2016
Другие материалы по этой песне:
  • Аккорды и текст

Страница создана 01.04.2016
http://primanota.ru/the-rose-garden/im-only-second-chords.htm
Привет, Гость.
Предлагаем пройти революционный курс по гитаре.
Подарок от PrimaNota.Ru, забирай!