PrimaNota.ru - самый крупный в мире бесплатный архив песенных текстов, аккордов, табулатур и нот


The Rose Garden - February Sunshine - бас-таба, видео

Регистрация Запомнить меня
Войти через:  Facebook Google Twitter Vk Yandex Mail.ru

The Rose Garden - February Sunshine - бас-таба, видео

Печатать
Просмотров: 49
Tabbed by: 6METAL6BASSIST6
E-mail: petergriffinav@gmail.com

Tuning: EADG

G|------|
D|------|
A|7-\---|
E|------|

0:08

G|------------------------------------------------------------------------------------------------|
D|------------------7-\---------------------------------------------7-\---------------------------|
A|0-----------------------5-----------------7-\---0-----------------------5-----------------7-----|
E|------------------------------------------------------------------------------------------------|

G|------------------------------------------------------------------------------------------------|
D|------------------7-\---------------------------------------------7-\---------------------------|
A|0-----------------------5-----------------7-\---0-----------------------5-----------------5-----|
E|------------------------------------------------------------------------------------------------|

0:22

G|------------------------------------------------------------------------------------------------|
D|5-----4-----------------5-----4-----------------------9-----6-----7---9-------9-----7---------6-|
A|------------7-----5-----------------7-----5-----7-----------------------7-----------------7-----|
E|------------------------------------------------------------------------------------------------|

0:29

G|------------------------------------------------------------------------------------------------|
D|7-----7-----7-----7---7-------4-----5-----6-----7-----7-----7-----7---7-------4-----5-----6-----|
A|------------------------5-----------------------------------------------5-----------------------|
E|------------------------------------------------------------------------------------------------|

G|------------------------------------------------------------------------------------------------|
D|7-----7-----7-----7---7-------4-----5-----7-----5-----4-----------------5-----4-----------------|
A|------------------------5-----------------------------------7-----5-----------------7-----5-----|
E|------------------------------------------------------------------------------------------------|

G|------------------------------------------------|
D|------9-----6-----7---9-------9-----7-----------|
A|7-----------------------7-----------------7-\---|
E|------------------------------------------------|

0:48

G|------------------------------------------------------------------------------------------------|
D|------------------7-\---------------------------------------------7-\---------------------------|
A|0-----------------------5-----------------7-\---0-----------------------5-----------------7-\---|
E|------------------------------------------------------------------------------------------------|

G|------------------------------------------------------------------------------------------------|
D|------------------7-\---------------------------------------------7-\---------------------------|
A|0-----------------------5-----------------7-\---0-----------------------5-----------------5-----|
E|------------------------------------------------------------------------------------------------|

1:02

G|------------------------------------------------------------------------------------------------|
D|5-----4---------------4-5-----4-----------------------9-----6-----7---9-------9-----7-----7---9-|
A|------------7-----5-----------------7-----5-----7-----------------------7-----------------------|
E|------------------------------------------------------------------------------------------------|

1:10

G|------------------------------------------------------------------------------------------------|
D|7-----7-----7-----7---7-------4-----5-----6-----7-----7-----7-----7---7-------4-----5-----6-----|
A|------------------------5-----------------------------------------------5-----------------------|
E|------------------------------------------------------------------------------------------------|

G|------------------------------------------------------------------------------------------|
D|7-----7-----7-----7---7-------4-----5-----7-----------------------------------------------|
A|------------------------5-----------------------7-----7-----------------------------------|
E|------------------------------------------------------------------------------------------|

1:22

G|------------------------------------------------------------------------6-----6-----6-----6---4-|
D|4-----4-----4-----4-----4-----4-----4-----4---2-----------------------6-------------------------|
A|----------------------4-------------------------4-----4-----4-----4-----------------------------|
E|------------------------------------------------------------------------------------------------|

G|------------------------------------------------------------------------------------------------|
D|4-----4-----4-----4-----4-----4-----4-----4-----2-----2-----2-----2-----2-----2-----2-----2-----|
A|----------------------------------------4-----------------------------2-------------------------|
E|------------------------------------------------------------------------------------------------|

1:37

G|------------------------------------------------------------------------------------------------|
D|4-----------------------------7-----4-----------4-----------------------------7-----4-----------|
A|------4-----0-----2---4-5-----------------5-----------4-----0-----2---4-5-----------------5-----|
E|------------------------------------------------------------------------------------------------|

G|------------------------------------------------------------------------------------------------|
D|5-----4-----------------5-----4-----------------------9-----6-----7---9-------------------------|
A|------------7-----5-----------------7-----5-----7-----------------------7-----------------7-\---|
E|------------------------------------------------------------------------------------------------|

1:53

G|------------------------------------------------------------------------------------------------|
D|------------------7-\---------------------------------------------7-\---------------------------|
A|0-----------------------5-----------------7-\---0-----------------------5-----------------7-\---|
E|------------------------------------------------------------------------------------------------|

G|------------------------------------------------------------------------------------------------|
D|------------------7-\---------------------------------------------7-\---------------------------|
A|0-----------------------5-----------------7-\---0-----------------------5-----------------------|
E|------------------------------------------------------------------------------------------------|

2:06

G|------------------------------------------------------------------------------------------------|
D|5-----4-----------------------4-----------------------9-----6-----7-----------9-----7-----9-----|
A|------------------------------------7-----5-----7-----------------------7-----------------------|
E|------------------------------------------------------------------------------------------------|

G|------------------------------------------------------------------------------------------------|
D|7-----7-----7-----7-----------4-----5-----6-----7-----7-----7-----7-----------4-----5-----6-----| x3  to
A|------------------------5-----------------------------------------------5-----------------------| fadeout.
E|------------------------------------------------------------------------------------------------|
Добавлено: 01.04.2016
Вам также может быть интересно:
Другие материалы по этой песне:
  • Аккорды и текст

Страница создана 01.04.2016
http://primanota.ru/the-rose-garden/february-sunshine-chords.htm
Привет, Гость.
Предлагаем пройти революционный курс по гитаре.
Подарок от PrimaNota.Ru, забирай!