PrimaNota.ru - самый крупный в мире бесплатный архив песенных текстов, аккордов, табулатур и нот


The Rock And Roll Machine - Creature Of The Night - таба, видео

Регистрация Запомнить меня
Войти через:  Facebook Google Twitter Vk Yandex Mail.ru

The Rock And Roll Machine - Creature Of The Night - таба, видео

Печатать
Просмотров: 104
Уроки эстрадного вокала в Санкт-Петербурге

The Rock and Roll Machine
Creature Of The Night
The Rock and Roll Machine


Matt Stroobant plays with a blues distortion, fuzz and also fuzz-wah so it helps with 
sound if you have a version of these but a single fuzz pedal combined with amp gain will 
fine.


(Fuzz On)
Intro
|  -------------------------------------------------------------------------  |
|  -------------------------------------------------------------------------  |
|  --------------1----------------------------------------------------------  |
|  ---7--------- 2----------------------------------------------------------  |
|  ---7----lr----2----lr----------------------------------------------------  |
|  ---5----------0----------------------------------------------------------  |

(Fuzz Off)
Verse
|  --------------------------------------------------------------------------- --- |
|  ---x-x-x-x-x-x-x-x---------------------------------------------------- -------- |
|  ---x-x-x-x-x-x-x-x---2------------------------------------------------- ------- |
|  ---x-x-x-x-x-x-x-x---2---2---------------------------------------------- ------ |   x4
|  ----------------------------2---------------------------------------------- --- |
|  ----------------------------0----------------------------------------------- -- |

(Fuzz On)
Bridge
|  ------------------------------------------------------------------------- -- |
|  ------------------------------------------------------------------------- -- |
|  -0-0-0-0-0-0-0-0-0------------1----------1-------------------------- ------- |
|  -2-2-2-2-2-2-2-2-2------7-----2-----7---2-------------------------- -------- |
|  -2-2-2-2-2-2-2-2-2------7-----2-----7---2-------------------------- -------- |
|  -0-0-0-0-0-0-0-0-0------5-----0-----5---0-------------------------- -------- |



(Fuzz Off)
Verse
|  --------------------------------------------------------------------------- -- |
|  ---x-x-x-x-x-x-x-x---------------------------------------------------- ------- |
|  ---x-x-x-x-x-x-x-x---2------------------------------------------------- ------ |
|  ---x-x-x-x-x-x-x-x---2--2---------------------------------------------- ------ |   x4
|  ----------------------------2---------------------------------------------- -- |
|  ----------------------------0---------------------------------------------- -- |

(Fuzz On)
Bridge
|  ---------------------------------------------------------------- |
|  ---------------------------------------------------------------- |
|  -0-0-0-0-0-0-0-0-0------------1----------1--------1-----------1- |
|  -2-2-2-2-2-2-2-2-2------7-----2-----7---2----7---2-----7----2--- |
|  -2-2-2-2-2-2-2-2-2------7-----2-----7---2----7---2-----7----2--- |
|  -0-0-0-0-0-0-0-0-0------5-----0-----5---0----5---0-----5----0--- |

------------------------------------------------------------------------- -- |
------------------------------------------------------------------------- -- |
------------------------------------------------------------------------- -- |
---4-4-4-4-4-4-4-4-4-4-4-4-4-4-4-4------------------------------- ---------- |
---4-4-4-4-4-4-4-4-4-4-4-4-4-4-4-4------------------------------- ---------- |
---2-2-2-2-2-2-2-2-2-2-2-2-2-2-2-2------------------------------- ---------- |

Chorus
|  -------------------------------------------------- |
|  -------------------------------------------------- |
|  -------------------------------------------------- |
|  ---6-6-6-6----4-4-4-4----8-8-8-8----10-10-10-10--- |
|  ---6-6-6-6----4-4-4-4----8-8-8-8----10-10-10-10--- |   x4
|  ---4-4-4-4----2-2-2-2----6-6-6-6----8---8---8---8- |

Now theres a wah solo in here but I don't have the right pedals but there is lots of 
and I think it uses a 10-12 pentatonic scale.




(Fuzz Off)
Verse 2
|  ------------------------------------------------------------------------- --- |
|  --x-x-x-x-x-x-x-x-x-x-x-x-x-x-x-x-------------------------------- ----------- |
|  --x-x-x-x-x-x-x-x-x-x-x-x-x-x-x-x—(x4)----2------------------- -------------- |
|  --x-x-x-x-x-x-x-x-x-x-x-x-x-x-x-x------------2--2-------- ------- ----------- |
|  ---------------------------------------------------------2--------------- --- |
|  -------------------------------------------------------------------------- -- |

(Fuzz On)
Bridge

|  ----------------------------------------------------------------- |
|  ----------------------------------------------------------------- |
|  ---0-0-0-0-0-0-0----0----0-0-0-0-0-0-0-0----0----0-0-0-0-0-0-0-0- |
|  ---2-2-2-2-2-2-2----0----2-2-2-2-2-2-2-2----0----2-2-2-2-2-2-2-2- |
|  ---2-2-2-2-2-2-2----0----2-2-2-2-2-2-2-2----0----2-2-2-2-2-2-2-2- |
|  ---0-0-0-0-0-0-0----0----0-0-0-0-0-0-0-0----0----0-0-0-0-0-0-0-0- |

------------------------------------------------------------------------- -- |
------------------------------------------------------------------------- -- |
------------------------------------------------------------------------- -- |
--4-4-4-4-4-4-4-4-4-4-4-4-4-4-4----------------------------------- --------- |
--4-4-4-4-4-4-4-4-4-4-4-4-4-4-4----------------------------------- --------- |
--2-2-2-2-2-2-2-2-2-2-2-2-2-2-2----------------------------------- --------- |

Chorus
|  -------------------------------------------------- |
|  -------------------------------------------------- |
|  -------------------------------------------------- |
|  ---6-6-6-6----4-4-4-4----8-8-8-8----10-10-10-10--- |
|  ---6-6-6-6----4-4-4-4----8-8-8-8----10-10-10-10--- |   x4
|  ---4-4-4-4----2-2-2-2----6-6-6-6----8---8---8---8- |

He plays the solo again, then after:
Outro
|  ------------------------------------------------------------------------- -- |
|  ------------------------------------------------------------------------- -- |
|  --------1----------1------------1----------------0--------------------- ---- |
|  ---7--- 2----7----2---7--------2----------------2--------------------- ----- |
|  ---7----2----7----2---7---lr---2---lr-----------2--------------------- ----- |
|  ---5----0----5----0---5--------0----------------0--------------------- ----- |


Legend:
Lr-let ring
ho-hammer on
po-pull of
b-bend
x-dead note
h(#)-harmonic(hash means fret no.)


Neways, I hope the tab is decent, please rate it and if you like Kiwi Rock and Roll or 
got some suggestions then email me on jamesdonaldson@hot-shot.com

cheers

http://www.muzic.net.nz/artists/884.html
http://www.amplifier.co.nz/artist/23052/rock_n_roll_machine.html
http://www.myspace.com/therockandrollmachine
Добавлено: 23.03.2012
Другие материалы по этой песне:
  • Аккорды и текст

Страница создана 23.03.2012
http://primanota.ru/the-rock-and-roll-machine/creature-of-the-night-chords.htm
Привет, Гость.
Предлагаем пройти революционный курс по гитаре.
Подарок от PrimaNota.Ru, забирай!