PrimaNota.ru - самый крупный в мире бесплатный архив песенных текстов, аккордов, табулатур и нот


The Rivieras - California Sun - аккорды и текст, таба, бас-таба, видео

Регистрация Запомнить меня
Войти через:  Facebook Google Twitter Vk Yandex Mail.ru

The Rivieras - California Sun - аккорды и текст, таба, бас-таба, видео

Печатать
Просмотров: 279
Авторы: Morris Levy, Henry Glover

California Sun
The Rivieras
Ramones and others do the cover of this song.
This is the true song by rivieras. 
They haven't an official website.

------------------------------------------------
Title     : California Sun
Artist    : The Rivieras
Album     : 
Capo      : I fret
Setting   : E-A-D-G-B-E
Tabbed by : Don D (thunderstruck_666@hotmail.com)
Date      : 18/04/2007
-------------------------------------------------

__________________________________________________________________________________
Capo!!: 1st fret!!! The name of the chords indicate only the position of the hand!
Ex. Capo 1st fret, position hand for D but the chord you're going to play is a D#
__________________________________________________________________________________

FIGURE A
|---------------------8-8-11----|
|-----8--11-11--11-11--------11-|
|-8-8---------------------------|
|-------------------------------|
|-------------------------------|
|-------------------------------|

|-11------8--------|
|----11-8---11-8---|
|----------------8-|
|------------------|
|------------------|
|------------------| 
Добавлено: 16.07.2012
Другие материалы по этой песне:
  • Аккорды и текст

Страница создана 23.02.2012
http://primanota.ru/the-rivieras/california-sun-chords.htm
Привет, Гость.
Предлагаем пройти революционный курс по гитаре.
Подарок от PrimaNota.Ru, забирай!