PrimaNota.ru - самый крупный в мире бесплатный архив песенных текстов, аккордов, табулатур и нот


The Rezillos - Flying Saucer Attack - бас-таба, видео

Регистрация Запомнить меня
Войти через:  Facebook Google Twitter Vk Yandex Mail.ru

The Rezillos - Flying Saucer Attack - бас-таба, видео

Печатать
Просмотров: 123
The Rezillos - Flying Saucer Attack

Intro
G|-------------------------------------------------------|
D|-77-66-55-44-33----------------------------------------|
A|----------------77-66-55-44-33-------------------------|
E|-------------------------------77-66-55-44-33-22-11-00-|

G|----------------|
D|----------------|
A|----------------|
E|-00-11-22-33-44-|

Intro pt2 (where the guitar comes in)
G|----------------------|
D|----------------------|
A|----22-33-44-55-44-33-|   do that walk down x4
E|-55-------------------|  

Intro pt3 (the other guitar comes in; around 19 seconds)
G|----------------|----------------|-----------------------------------|
D|----------------|----------------|-----------------------------------|
A|----------1--3--|----------1--3--|----------1--3-1--5555555555555555-|
E|-33333333-------|-33333333-------|-33333333--------------------------|

Verse
G|---------------|---------------|---------------|----------|
D|---------------|---------------|---------------|----------|
A|----22-33-4h5--|-------00-1h2--|----22-33-4h5--|-0--0--5--|
E|-33------------|-00-33---------|-33------------|----------|

G|---------------|---------------|-------------------------|
D|---------------|---------------|-------------------------|
A|----22-33-4h5--|-------00-1-h2-|-0--0--5--5----55555555--|
E|-33------------|-00-33---------|-------------3-----------|
 
(whole thing x2)

Chorus
G|-------------------| pause |-------------------------------------|
D|-------------------| for   |-------------------------------------|
A|-33333333----------| drum  |-33333333-55555555----------33333333-|
E|----------55555555-| fill  |-------------------55555555----------|

G|-----------------------|
D|-----------------------|
A|-----1--3--1--5555555--|
E|-333-------------------|

Guitar Solo
G|----------------------|
D|----------------------|    do that 
A|----22-33-44-55-44-33-|  walk down x4 or x5, its 4 I think though
E|-55-------------------|  

G|----------------|----------------|-----------------------------------|
D|----------------|----------------|-----------------------------------|
A|----------1--3--|----------1--3--|----------1--3-1--5555555555555555-|
E|-33333333-------|-33333333-------|-33333333--------------------------|


Outro Chorus
G|-------------------| pause |-------------------------------------|
D|-------------------| for   |-------------------------------------|
A|-33333333----------| drum  |-33333333-55555555----------33333333-|
E|----------55555555-| fill  |-------------------55

G|-------------------------------------|
D|-------------------------------------|
A|-33333333-55555555----------33333333-|  x2
E|-------------------55555555----------|

G|---------------------------|
D|---------------------------|
A|-----1--3--1--3--1--3---5~-|
E|-333-----------------------|



Intro pt1
Intro pt2
Intro pt3
Verse
Chorus
Verse
Chorus
Guitar Solo
Verse
Outro Chorus

Добавлено: 26.03.2012
Другие материалы по этой песне:

Страница создана 26.03.2012
http://primanota.ru/the-rezillos/flying-saucer-attack-chords.htm
Привет, Гость.
Предлагаем пройти революционный курс по гитаре.
Подарок от PrimaNota.Ru, забирай!