PrimaNota.ru - самый крупный в мире бесплатный архив песенных текстов, аккордов, табулатур и нот


The Restarts - Wake Up - бас-таба, видео

Регистрация Запомнить меня
Войти через:  Facebook Google Twitter Vk Yandex Mail.ru

The Restarts - Wake Up - бас-таба, видео

Печатать
Просмотров: 100
Intro:
G----------------------------|
D--/10-10*****************\--|
A----------------------------|
E----------------------------|

Verse:
G------------------------------------|
D------------------------------------|
A--3-3333-5/6666-5/66-5/66-5\333333--|
E------------------------------------|

Chorus:
G----------------------------------|
D----------------------------------|
A--3-------5-4-444-3-------4-444444|
E---43-333--5-------43-333---------|

Bridge:
G-----------------------5---------|
D----------------3/4444-----------|
A--3-3333-5/6666----------333333--|
E---------------------------------|
Добавлено: 02.08.2013
Другие материалы по этой песне:
  • Аккорды и текст

Страница создана 02.08.2013
http://primanota.ru/the-restarts/wake-up-chords.htm
Привет, Гость.
Предлагаем пройти революционный курс по гитаре.
Подарок от PrimaNota.Ru, забирай!