PrimaNota.ru - самый крупный в мире бесплатный архив песенных текстов, аккордов, табулатур и нот


The Restarts - No Escape - бас-таба, видео

Регистрация Запомнить меня
Войти через:  Facebook Google Twitter Vk Yandex Mail.ru

The Restarts - No Escape - бас-таба, видео

Печатать
Просмотров: 68
Intro:x2
G------------------------87----|
D--------------------------87--|
A---------------7-777-6-6------|
E--4-44444-4444----------------|

Verse:x2
G---------------------------------------------888------|
D-----------------------------------------9999---8-88--|
A-------------7777-77-7777------------7777-------------|
E--44-4444-44--------------77-7777-77------------------|

Chorus:x4
G---------------------------------|
D---------------------------------|
A-------67-77-7776----------6666--|
E--44-44----------7-7777-777------|

Intro x2
Verse x2
Chorus x4

Bridge:x6
G-------------------------------------|
D---------------------6---6----5--8---|
A----3---3---3---3--77-7-7-7-66-6--9--|
E--44-4-4-4-4-4-4-4-------------------|

Chorus x4
Добавлено: 26.11.2013
Вам также может быть интересно:
Другие материалы по этой песне:
  • Аккорды и текст

Страница создана 26.11.2013
http://primanota.ru/the-restarts/no-escape-chords.htm
Привет, Гость.
Предлагаем пройти революционный курс по гитаре.
Подарок от PrimaNota.Ru, забирай!