PrimaNota.ru - самый крупный в мире бесплатный архив песенных текстов, аккордов, табулатур и нот


The Restarts - Intelligent Design - бас-таба, видео

Регистрация Запомнить меня
Войти через:  Facebook Google Twitter Vk Yandex Mail.ru

The Restarts - Intelligent Design - бас-таба, видео

Печатать
Просмотров: 103
intro: X10
g-----------------|
d-----------------|
a--3-3-5-55555555-|
e-3-3-------------|

"Hey, hey hey!" then the verse starts: X4
g-----------------|
d-----------------|
a--3-3-5-55555555-|
e-3-3-------------|

chorus: X4
g---------------------------------|
d---------------------------------|
a-3-3333-5-55555------------------|
e----------------5555555555555555-|

bridge: for however many beats
g------------------|
d------------------|
a------------0-1-0-|
e-333-33-111-------|

bass lick: X2 at the end of every 4 bass bridges.
g---------------|
d---------------|
a-----22-----55-|
e-3-33---4-44---|
Добавлено: 11.05.2012
Другие материалы по этой песне:
  • Аккорды и текст

Страница создана 11.05.2012
http://primanota.ru/the-restarts/intelligent-design-chords.htm
Привет, Гость.
Предлагаем пройти революционный курс по гитаре.
Подарок от PrimaNota.Ru, забирай!