PrimaNota.ru - самый крупный в мире бесплатный архив песенных текстов, аккордов, табулатур и нот


The Restarts - Backwards - бас-таба, видео

Регистрация Запомнить меня
Войти через:  Facebook Google Twitter Vk Yandex Mail.ru

The Restarts - Backwards - бас-таба, видео

Печатать
Просмотров: 79
Verse:x2
G-----------------|
D-----------------|
A------45-----54--|
E--22-2---22-2----|

Guitar x2

Verse x6

Chorus:x2
G-------------------------------|
D-------------------------------|
A---------55-55-5---------------|
E--22-22-2-------55-55-5-77-77--|

Break:
G-----------------------------------------------|
D-----------------------------------------------|
A-----------------------------------------------|
E--22(2)(2)(2)(2)22(2)(2)(2)(2)22(2)(2)(2)(2)2--|

Bridge:x4
G-------------------|
D-------------------|
A-------------------|
E--2-7-7-5-5-3-3-2--|

Verse x6
Chorus x2
Break
Bridge x8
Добавлено: 18.09.2013
Другие материалы по этой песне:
  • Аккорды и текст

Страница создана 18.09.2013
http://primanota.ru/the-restarts/backwards-chords.htm
Привет, Гость.
Предлагаем пройти революционный курс по гитаре.
Подарок от PrimaNota.Ru, забирай!