PrimaNota.ru - самый крупный в мире бесплатный архив песенных текстов, аккордов, табулатур и нот


The Redwalls - What A Shame - таба, видео

Регистрация Запомнить меня
Войти через:  Facebook Google Twitter Vk Yandex Mail.ru

The Redwalls - What A Shame - таба, видео

Печатать
Просмотров: 121
The Redwalls
Universal Blues (2003)

WHAT A SHAME
Key= C#m
Time= 3/4

INTRO                                                    _______
               C#m                                              |
         1 2 3 1 2 3 1 2 3 1 2 3 1 2 3 1 2 3 1 2 3 1 2 3        |
       e-------4-----4-----4-----------4-----4-----4-----       |
       b-------5-----5-----5-----------5-----5-----5-----       |
Rhythm g-------6-----6-----6-----------6-----6-----6-----       |
Guitar d-------6-----6-----6-----------6-----6-----6-----       |
       a-------4-----4-----4-----------4-----4-----4-----       |
       e-4-7-4-------------------4-7-4-------------------       |
                                                                |
       e-------------------------------------7^----------       |
       b--------------------------7^-7-5-7-5-------------       |
Lead   g--------64646464646464646------------------------       |
Guitar d-------------------------------------------------       |
       a-------------------------------------------------       |
       e------------------------------------------------- ______|


         1 2 3 1 2 3 1 2 3 1 2 3 1 2 3 1 2 3 1 2 3 1 2 3 1 2 3
       e-------4-----4-----4-----------4-----4-----4-----------|
       b-------5-----5-----5-----------5-----5-----5-----------|
Rhythm g-------6-----6-----6-----------6-----6-----6-----------|
Guitar d-------6-----6-----6-----------6-----6-----6-----------|
       a-------4-----4-----4-----------4-----4-----4-----------|
       e-4-7-4-------------------4-7-4-------------------4-7-4-|

VERSE
C#m                     F#m   G#    C#m
123123123123123123123123123123123123123123123123
C#m                     F#m   G#    C#m
123123123123123123123123123123123123123123123123

CHORUS
C#m   G#    C#m   G#    C#m   G#    C#m
123123123123123123123123123123123123123123123123123123123123

VERSE
C#m                     F#m   G#    C#m
123123123123123123123123123123123123123123123123
C#m                     F#m   G#    C#m
123123123123123123123123123123123123123123123123

CHORUS
C#m   G#    C#m   G#    C#m   G#    C#m
123123123123123123123123123123123123123123123123

BRIDGE
E           A           F#m         G#
123123123123123123123123123123123123123123123123

SOLO
         C#m
       e------------------------------------------7-------->
       b---------5h7-7-7^-7^-7-5------------5h7-7^--7^7^--->
Lead   g-----4h6-----------------6------4h6--------------6->
Guitar d-4h6------------------------4h6-------------------->
       a--------------------------------------------------->
       e--------------------------------------------------->

    F#m    G#        C#m
<------4---5---4----------9-9----|
<(5)/7-----------7-5------9-9----|
<--------------------6----9-9----|
<--------------------------------|
<--------------------------------|
<--------------------------------|

VERSE
C#m                     F#m   G#    C#m
123123123123123123123123123123123123123123123123

CHORUS
C#m   G#    C#m   G#    C#m   G#    C#m   G#    C#m
123123123123123123123123123123123123123123123123


i have no idea what the lyrics are sorry
play the rhythm intro throughout the verses as well, but only during the C#m's
the lead guitar riffs i didnt tab throughout song in the C#m pentatonic so you'll be 
to figure em out
Добавлено: 31.07.2012
Другие материалы по этой песне:
  • Аккорды и текст

Страница создана 31.07.2012
http://primanota.ru/the-redwalls/what-a-shame-chords.htm
Привет, Гость.
Предлагаем пройти революционный курс по гитаре.
Подарок от PrimaNota.Ru, забирай!