PrimaNota.ru - самый крупный в мире бесплатный архив песенных текстов, аккордов, табулатур и нот


The Redneck Manifesto - Weird Waters - бас-таба, видео

Регистрация Запомнить меня
Войти через:  Facebook Google Twitter Vk Yandex Mail.ru

The Redneck Manifesto - Weird Waters - бас-таба, видео

Печатать
Просмотров: 55
The Redneck Manifesto - weird waters tab (timings are quite hard)
standard tuning

intro
G----------------------------------------------------------------|
D----11--10h-11--11--10h11-11p10-----11--10h-11/0----------------|
A----------------------------------------------------------------|
E-9-------------------------------9-----------------12---12h-14--| x6

G------------------------------|
D------------------------------|
A------------------------------|
E---9-9-9-99-7-7-7777-0-0-0-0--| x2

                               variation
G----------------------        -----------------------------------------|
D----------------------        ---------2h4------------4-2--------------|
A-4--4--4--2-2-2-2-----        --4--4--4-----2--2--2--2---4-2-----------|
E---------------0-0-0-0        ------------------------------00-0-0-----|  x4


not sure if 100% but it fits
G--------------------------------------------|
D---------------4---4--4--4--2--2--2--2------|
A------------------2--2--2--2--2--2--2--2----|
E--5-25-25-25-2------------------------------| x4


                               variation
G----------------------        -----------------------------------------|
D----------------------        ---------2h4------------4-2--------------|
A-4--4--4--2-2-2-2-----        --4--4--4-----2--2--2--2---4-2-----------|
E---------------0-0-0-0        ------------------------------00-0-0-----|  x2


not sure if 100% but it fits
G--------------------------------------------|
D---------------4---4--4--4--2--2--2--2------|
A------------------2--2--2--2--2--2--2--2----|
E--5-25-25-25-2------------------------------| x2


G--------------------------------------------|
D---4/777------2/4-4-4-4~~/7-----------------|
A----------7---------------------------------|
E--------------------------------------------|


G--------------------------------------------|
D----2-22--------4/7777----2/4-4-4-4~~4/7----|
A--4-----4-2--2----------7-------------------|
E--------------------------------------------| x3


G----------------------------------------------------------------|
D----11--10h-11--11--10h11-11p10-----11--10h-11/0----------------|
A----------------------------------------------------------------|
E-9-------------------------------9-----------------12---12h-14--| x2


G--------------------------------------------------------------|
D--------------------------------------------------------------|
A--9999999999999999--------------------------------------------|
E--------------------------------------------------------------|

G--------------------------------------------------|
D-------------------------7~7-7-777~h6---6---------|
A---9-9-9-9-7-7-7-7-9-7-9--------------9---7-7-7-7-|
E--------------------------------------------------|

G-------------------------------------------------------------------|
D-------------------------7~7-7-777~h6---6---------7~h6---6---------|
A---9-9-9-9-7-7-7-7-9-7-9--------------9---7-7-7-7------9---7-7-7-7-|
E-------------------------------------------------------------------| x5

G-------------------|
D-------------------|
A---9-9-9-9-7-7-7-7-|
E-------------------|

G------------------------------------------------|
D--9-11----6--9-11------6--9-11----6-------------|
A-------7h9-9------7h9-9-9------7h9-9------------|
E------------------------------------------------| x4

                                                     to end
G------------------------------------------------    ------------|
D--9-11----6--9-11------6--9-11----6---7-6-------    --7-6-------|
A-------7h9-9------7h9-9-9------7h9-9------7-----    ------7-----|
E--------------------------------------------9--- x6 ------------|
Добавлено: 26.10.2013
Вам также может быть интересно:
Другие материалы по этой песне:
  • Аккорды и текст

Страница создана 26.10.2013
http://primanota.ru/the-redneck-manifesto/weird-waters-chords.htm
Привет, Гость.
Предлагаем пройти революционный курс по гитаре.
Подарок от PrimaNota.Ru, забирай!