PrimaNota.ru - самый крупный в мире бесплатный архив песенных текстов, аккордов, табулатур и нот


The Receiving End Of Sirens - Then I Defy You Stars - текст песни, таба, видео

Регистрация Запомнить меня
Войти через:  Facebook Google Twitter Vk Yandex Mail.ru

The Receiving End Of Sirens - Then I Defy You Stars - текст песни, таба, видео

Печатать
Просмотров: 124
Уроки эстрадного вокала в Санкт-Петербурге
Please note that I am not claiming this tab as my own -I have recovered it from the 
archive of TREOS's fansite "Flee The Factory" which ceased to exist sometime ago. I am sure 
will be of use to many of you.As recorded by The Receiving End Of Sirens
            (From the 2005 Album BETWEEN THE HEART AND THE SYNAPSES)

Words and Music by The Receiving End Of Sirens
Arranged by The Receiving End Of Sirens
Transcribed by Cordarro Collins

Gtr I (C G C F A D) - 'Untitled'
Gtr II (C G C F A D) - 'Untitled'
Gtr III (C G C F A D) - 'Untitled'
Gtr IV (C G C F A D) - 'Untitled'
Gtr V (C G C F A D) - 'Untitled'

 Intro
  Q=175
  N.C.
 4/4
  Gtr I
   W           +W            +W            +W
|-10--------|-(10)--------|-(10)--------|-(10)----|
|-----------|-------------|-------------|---------|
|--7--------|--(7)--------|--(7)--------|--(7)----|
|-----------|-------------|-------------|---------|
|-----------|-------------|-------------|---------|
|-----------|-------------|-------------|---------|


  G5                                     Bb5
  Gtr I
   Q   E Q    E  Q     +E  E Q.   E Q     Q   E Q    E  Q     +E  E Q.   E Q
|-------------------|------------------|-------------------|-------------------|
|-------------------|------------------|-------------------|-------------------|
|-------------------|------------------|-------------------|-------------------|
|--5---5-5----5--5--|--(5)-5-5----5-5--|--8---8-8----8--8--|--(8)-8-8----8-8---|
|--5---5-5----5--5--|--(5)-5-5----5-5--|--8---8-8----8--8--|--(8)-8-8----8-8---|
|--5---5-5----5--5--|--(5)-5-5----5-5--|--8---8-8----8--8--|--(8)-8-8----8-8---|
|
| Gtr II
|  Q   Q    Q    Q     +W                 Q   Q    Q    Q     +W
|---------------10--|-(10)-------------|---------------13--|-(13)--------------|
|----------11-------|------------------|----------11-------|-------------------|
|-----12------------|------------------|-----12------------|-------------------|
|-------------------|------------------|-------------------|-------------------|
|-10----------------|------------------|-10----------------|-------------------|
|-------------------|------------------|-------------------|-------------------|


  Eb5                                    F5
  E E  E E  Q   Q     +E  E Q  E E E E   E E  E E  Q   Q     +E  E Q  E E E E
|------------------|-------------------|------------------|--------------------|
|------------------|-------------------|------------------|--------------------|
|------------------|-------------------|------------------|--------------------|
|-1-1--1-1------1--|--(1)-1-1--1-1-1-1-|-3-3--3-3------3--|--(3)-3-3--3-3-3-3--|
|-1-1--1-1------1--|--(1)-1-1--1-1-1-1-|-3-3--3-3------3--|--(3)-3-3--3-3-3-3--|
|-1-1--1-1------1--|--(1)-1-1--1-1-1-1-|-3-3--3-3------3--|--(3)-3-3--3-3-3-3--|
|
| Q    Q    Q   Q     +W                 Q    Q    Q   Q     +W
|-----10-----------|-------------------|------------------|--------------------|
|--------------10--|-(10)--------------|-----13-------13--|-(13)---------------|
|-0--------12------|-------------------|-0--------10------|--------------------|
|------------------|-------------------|------------------|--------------------|
|------------------|-------------------|------------------|--------------------|
|------------------|-------------------|------------------|--------------------|


  G5
   Q   E Q    E  Q     +E  E Q.   E Q
|-------------------|------------------|
|-------------------|------------------|
|-------------------|------------------|
|--5---5-5----5--5--|--(5)-5-5----5-5--|
|--5---5-5----5--5--|--(5)-5-5----5-5--|
|--5---5-5----5--5--|--(5)-5-5----5-5--|
|
|  Q   Q    Q    Q     +W
|---------------10--|-(10)-------------|
|----------11-------|------------------|
|-----12------------|------------------|
|-------------------|------------------|
|-10----------------|------------------|
|-------------------|------------------|


  Bb5                                 Eb5
   Q   E Q    E  Q     +E  E Q  E E E E
|-------------------|--------------------|
|-------------------|--------------------|
|-------------------|--------------------|
|--8---8-8----8--8--|--(8)-8-8--8-8-8-1--|
|--8---8-8----8--8--|--(8)-8-8--8-8-8-1--|
|--8---8-8----8--8--|--(8)-8-8--8-8-8-1--|
|
|  Q   Q    Q    Q     +W
|---------------13--|-(13)---------------|
|----------11-------|--------------------|
|-----12------------|--------------------|
|-------------------|--------------------|
|-10----------------|--------------------|
|-------------------|--------------------|


       D5Eb5     D5  Eb5         F5 Eb5     D5Eb5     D5  Eb5      F5
   +E  E Q  Q.   E     E  E Q  E Q  E   +E  E Q  Q.   E   E E Q  E Q.
|------------------|------------------|-----------------|----------------|
|------------------|------------------|-----------------|----------------|
|------------------|------------------|-----------------|----------------|
|--(1)-0-1-------0-|---1----1--1-3--1-|-(1)-0-1-------0-|-1---1--1-3-----|
|--(1)-0-1-------0-|---1----1--1-3--1-|-(1)-0-1-------0-|-1---1--1-3-----|
|--(1)-0-1-------0-|---1----1--1-3--1-|-(1)-0-1-------0-|-1---1--1-3-----|
|
|   >
|  +W                 +W                 W                W
|-(13)-------------|-(13)-------------|-----------------|----------------|
|------------------|------------------|-----------------|----------------|
|------------------|------------------|-----------------|----------------|
|------------------|------------------|-----------------|----------------|
|------------------|------------------|-----------------|----------------|
|------------------|------------------|-----------------|----------------|


 Verse
  G5                                    Eb5
    PM|
  E S S E E q  Q    H    Q.   E   +E  E E E Q  E S S   W
|-----------------|-------------|--------------------|------|
|-----------------|-------------|--------------------|------|
|-----------------|-------------|--------------------|------|
|-5-----5---5--5--|-----------5-|-(5)---1---1----x-x-|------|
|-5-5-5-5---5--5--|-----------5-|-(5)---1---1----x-x-|------|
|-5-5-5-5---5--5--|-----------5-|-(5)---1---1----x-x-|------|


     G5                                                       G5
                                                              PM|
  Q  q  Q  E S S   E Q.   H      E S S E E Q  q    Q  Q  Q.   S S
|----------------|-------------|-----------------|----------------|
|----------------|-------------|-----------------|----------------|
|----------------|-------------|-----------------|----------------|
|----5--5----x-x-|-x-----------|---x-x-x------1--|-1--------------|
|----5--5----x-x-|-x-----------|---x-x-1------1--|-1----------5-5-|
|----5--5----x-x-|-x-----------|---x-x-1------1--|-1----------5-5-|


  Gtr I
  PM----|
  E S S E E q  Q     H           Q.        E
|-----------------|--------------------------|
|-----------------|--------------------------|
|-----------------|--------------------------|
|-----------5--5--|------------------------5-|
|-5-5-5-5---5--5--|------------------------5-|
|-5-5-5-5---5--5--|------------------------5-|
|
| Gtr II
| W                  E  E  E  E  E   E  E  E
|-----------------|--------------------------|
|-----------------|-11----10-11-10--------10-|
|-----------------|----12-----------10-12----|
|-----------------|--------------------------|
|-----------------|--------------------------|
|-----------------|--------------------------|


            Eb5                    N.C.
                                   PM|
   +E   E   E E Q  E S S     H     E E E E
|------------------------|------------------|
|------------------------|------------------|
|------------------------|------------------|
|--(5)------1---1----x-x-|-------------8-7--|
|--(5)------1---1----x-x-|------------------|
|--(5)------1---1----x-x-|---------5-5------|
|
|       >
|  +E   H..                 +W
|------------------------|------------------|
|-(10)-------------------|------------------|
|------12----------------|-(12)-------------|
|------------------------|------------------|
|------------------------|------------------|
|------------------------|------------------|


       G5
                                           PM---------|
  +Q   q  Q  E S S    Q    Q     H         q   q   q   Q     Q  Q   Q  Q
|------------------|--------------------|-----------------|---------------|
|------------------|--------------------|-----------------|---------------|
|------------------|--------------------|-----------------|---------------|
|-(7)--5--5----x-x-|--5-----------------|--------------5--|--5--5---5--5--|
|------5--5----x-x-|--5-----------------|------5---5---5--|--5--5---5--5--|
|------5--5----x-x-|--5-----------------|--5---5---5---5--|--5--5---5--5--|
|
|  W                  E E  E  E  Q   Q     Q   Q   Q   Q     Q  Q   Q  Q
|------------------|--------------------|-------------10--|------------8--|
|------------------|--------------------|-----11--13------|-----8--10-----|
|------------------|----------------10--|-12--------------|-10------------|
|------------------|----8-10-12-10------|-----------------|---------------|
|------------------|-10-----------------|-----------------|---------------|
|------------------|--------------------|-----------------|---------------|


 Chorus
                                         Bb5
   Q   E Q    E  Q     +E  E Q  E E Q     Q   E Q    E  Q     +E  E Q  E E Q
|-------------------|------------------|-------------------|-------------------|
|-------------------|------------------|-------------------|-------------------|
|-------------------|------------------|-------------------|-------------------|
|--5---5-5----5--5--|--(5)-5-5--5-5-5--|--8---8-8----8--8--|--(8)-8-8--8-8-8---|
|--5---5-5----5--5--|--(5)-5-5--5-5-5--|--8---8-8----8--8--|--(8)-8-8--8-8-8---|
|--5---5-5----5--5--|--(5)-5-5--5-5-5--|--8---8-8----8--8--|--(8)-8-8--8-8-8---|
|
|  Q   Q    Q    Q     +W                 Q   Q    Q    Q     +W
|---------------10--|-(10)-------------|---------------13--|-(13)--------------|
|----------11-------|------------------|----------11-------|-------------------|
|-----12------------|------------------|-----12------------|-------------------|
|-------------------|------------------|-------------------|-------------------|
|-10----------------|------------------|-10----------------|-------------------|
|-------------------|------------------|-------------------|-------------------|


  Eb5                                    F5
  E E  E E  Q   Q     +E  E Q  E E E E   E E  E E  Q   Q     +E  E Q  E E E E
|------------------|-------------------|------------------|--------------------|
|------------------|-------------------|------------------|--------------------|
|------------------|-------------------|------------------|--------------------|
|-1-1--1-1------1--|--(1)-1-1--1-1-1-1-|-3-3--3-3------3--|--(3)-3-3--3-3-3-3--|
|-1-1--1-1------1--|--(1)-1-1--1-1-1-1-|-3-3--3-3------3--|--(3)-3-3--3-3-3-3--|
|-1-1--1-1------1--|--(1)-1-1--1-1-1-1-|-3-3--3-3------3--|--(3)-3-3--3-3-3-3--|
|
| Q    Q    Q   Q     +W                 Q    Q    Q   Q     +W
|-----10-----------|-------------------|------------------|--------------------|
|--------------10--|-(10)--------------|-----13-------13--|-(13)---------------|
|-0--------12------|-------------------|-0--------10------|--------------------|
|------------------|-------------------|------------------|--------------------|
|------------------|-------------------|------------------|--------------------|
|------------------|-------------------|------------------|--------------------|


  G5
   Q   E Q    E  Q     +E  E Q  E E Q
|-------------------|------------------|
|-------------------|------------------|
|-------------------|------------------|
|--5---5-5----5--5--|--(5)-5-5--5-5-5--|
|--5---5-5----5--5--|--(5)-5-5--5-5-5--|
|--5---5-5----5--5--|--(5)-5-5--5-5-5--|
|
|  Q   Q    Q    Q     +W
|---------------10--|-(10)-------------|
|----------11-------|------------------|
|-----12------------|------------------|
|-------------------|------------------|
|-10----------------|------------------|
|-------------------|------------------|


  Bb5                                 Eb5
   Q   E Q    E  Q     +E  E Q  E E E E
|-------------------|--------------------|
|-------------------|--------------------|
|-------------------|--------------------|
|--8---8-8----8--8--|--(8)-8-8--8-8-8-1--|
|--8---8-8----8--8--|--(8)-8-8--8-8-8-1--|
|--8---8-8----8--8--|--(8)-8-8--8-8-8-1--|
|
|  Q   Q    Q    Q     +W
|---------------13--|-(13)---------------|
|----------11-------|--------------------|
|-----12------------|--------------------|
|-------------------|--------------------|
|-10----------------|--------------------|
|-------------------|--------------------|


       D5Eb5     D5  Eb5         F5 Eb5     D5Eb5     D5  Eb5      F5
   +E  E Q  Q.   E     E  E Q  E Q  E   +E  E Q  Q.   E   E E Q  E Q.
|------------------|------------------|-----------------|----------------|
|------------------|------------------|-----------------|----------------|
|------------------|------------------|-----------------|----------------|
|--(1)-0-1-------0-|---1----1--1-3--1-|-(1)-0-1-------0-|-1---1--1-3-----|
|--(1)-0-1-------0-|---1----1--1-3--1-|-(1)-0-1-------0-|-1---1--1-3-----|
|--(1)-0-1-------0-|---1----1--1-3--1-|-(1)-0-1-------0-|-1---1--1-3-----|
|
|   >
|  +W                 +W                 W                W
|-(13)-------------|-(13)-------------|-----------------|----------------|
|------------------|------------------|-----------------|----------------|
|------------------|------------------|-----------------|----------------|
|------------------|------------------|-----------------|----------------|
|------------------|------------------|-----------------|----------------|
|------------------|------------------|-----------------|----------------|


   Verse
    N.C.
   3/4
    Gtr II
     PM---------|        PM-------------------------|          PM---------|
     E  E E E E E     E  E E E E E    E   E E  E  E  E     E   E  E  E  E  E
||----------------|----------------|-------------------|----------------------|
||o---------------|---6------------|-------------------|--11------------------|
||--------------7-|------7---------|----------------10-|----------------------|
||--------5-7-8---|--------8-7-5---|--------8-10-12----|---------12----10-12--|
||o-----5---------|--------------5-|-----10------------|------10----10--------|
||---5------------|----------------|--8----------------|----------------------|
|
|   Gtr IV
|    H.              +H.              H.                  +H.
||--10------------|-(10)-----------|-------------------|----------------------|
||o-11------------|-(11)-----------|-11----------------|-(11)-----------------|
||----------------|----------------|-12----------------|-(12)-----------------|
||----------------|----------------|-------------------|----------------------|
||o---------------|----------------|-------------------|----------------------|
||----------------|----------------|-------------------|----------------------|


   PM-|   PM--|           PM----|
   E  E E E E E     E  E  E E E E  4x
|---------------|------------------||
|---------------|-----------------o||
|-------8-------|---8s10-----------||
|-----5---3-5-7-|--------10-7-5----||
|--6------------|---------------6-o||
|---------------|------------------||
|
|  H.               H.             4x
|-10------------|-/13--------------||
|-11------------|-/15-------------o||
|---------------|------------------||
|---------------|------------------||
|---------------|-----------------o||
|---------------|------------------||


 Pre-Chorus
  Eb5
  Gtr I
    PM-----------------------------------------------------------
    E    E    E    E    E    E      E    E    E    E    E    E
|-------------------------------|-------------------------------|
|-------------------------------|-------------------------------|
|-------------------------------|-------------------------------|
|-------------------------------|-------------------------------|
|---1----1----1----1----1----1--|---1----1----1----1----1----1--|
|---1----1----1----1----1----1--|---1----1----1----1----1----1--|
|
| Gtr II
|   PM-----------------------------------------------------------
|   E    E    E    E    E    E      E    E    E    E    E    E
|-------------------------------|-------------------------------|
|-------------------------------|-------------------------------|
|-------------------------------|-------------------------------|
|---8----8----8----8----8----8--|---8----8----8----8----8----8--|
|---6----6----6----6----6----6--|---6----6----6----6----6----6--|
|-------------------------------|-------------------------------|
|
| Gtr III
|   E    E    E    E    E    E      E    E    E    E    E    E
|-------------------------------|-------------------------------|
|-------------------------------|-------------------------------|
|-(10)--10--(10)--10--(10)--10--|-(10)--10--(10)--10--(10)--10--|
|---8----8----8----8----8----8--|---8----8----8----8----8----8--|
|--10--(10)--10--(10)--10--(10)-|--10--(10)--10--(10)--10--(10)-|
|-------------------------------|-------------------------------|


                                  Bb5/G
 --------------------------|
    E    E    E    E    E    E      E    E    E    E    E    E
|-------------------------------|-------------------------------|
|-------------------------------|-------------------------------|
|-------------------------------|-/10---10---10---10---10---10--|
|-------------------------------|---x----x----x----x----x----x--|
|---1----1----1----1----1----1--|--/8----8----8----8----8----8--|
|---1----1----1----1----1----1--|-------------------------------|
|
|--------------------------|                  PM-----------|
|   E    E    E    E    E    E      E    E    E    E    E    E
|-------------------------------|-------------------------------|
|-------------------------------|-------------------------------|
|-------------------------------|-------------------------------|
|---8----8----8----8----8----8--|---5s===7--------------5-------|
|---6----6----6----6----6----6--|-------------5--------------5--|
|-------------------------------|------------------5------------|
|
|   E    E    E    E    E    E      E    E    E    E    E    E
|-------------------------------|-------------------------------|
|-------------------------------|-------------------------------|
|-(10)--10--(10)--10--(10)--10--|-(10)--10--(10)--10--(10)--10--|
|---8----8----8----8----8----8--|---8----8----8----8----8----8--|
|--10--(10)--10--(10)--10--(10)-|--10--(10)--10--(10)--10--(10)-|
|-------------------------------|-------------------------------|


  Eb5
    PM-----------------------------------------------------------
    E    E    E    E    E    E      E    E    E    E    E    E
|-------------------------------|-------------------------------|
|-------------------------------|-------------------------------|
|-------------------------------|-------------------------------|
|-------------------------------|-------------------------------|
|---1----1----1----1----1----1--|---1----1----1----1----1----1--|
|---1----1----1----1----1----1--|---1----1----1----1----1----1--|
|
|   PM-----------------------------------------------------------
|   E    E    E    E    E    E      E    E    E    E    E    E
|-------------------------------|-------------------------------|
|-------------------------------|-------------------------------|
|-------------------------------|-------------------------------|
|---8----8----8----8----8----8--|---8----8----8----8----8----8--|
|---6----6----6----6----6----6--|---6----6----6----6----6----6--|
|-------------------------------|-------------------------------|
|
|   E    E    E    E    E    E      E    E    E    E    E    E
|-------------------------------|-------------------------------|
|-------------------------------|-------------------------------|
|-(10)--10--(10)--10--(10)--10--|-(10)--10--(10)--10--(10)--10--|
|---8----8----8----8----8----8--|---8----8----8----8----8----8--|
|--10--(10)--10--(10)--10--(10)-|--10--(10)--10--(10)--10--(10)-|
|-------------------------------|-------------------------------|


                                  N.C.
 --------------------------|
    E    E    E    E    E    E      E    E  E  E  E  E
|-------------------------------|----------------------|
|-------------------------------|----------------------|
|-------------------------------|-/10---10-10-10-10-10-|
|-------------------------------|---x----x--x--x--x--x-|
|---1----1----1----1----1----1--|--/8----8--8--8--8--8-|
|---1----1----1----1----1----1--|----------------------|
|
|--------------------------|
|   E    E    E    E    E    E      S S  E  E  E  E  E
|-------------------------------|----------------------|
|-------------------------------|----------------------|
|-------------------------------|----------------------|
|---8----8----8----8----8----8--|---7h8p=7--------7----|
|---6----6----6----6----6----6--|----------10--8-----8-|
|-------------------------------|----------------------|
|
|                                           PM------|
|   E    E    E    E    E    E      E    E  E  E  E  E
|-------------------------------|----------------------|
|-------------------------------|----------------------|
|-(10)--10--(10)--10--(10)--10--|----------------------|
|---8----8----8----8----8----8--|---5s===7--------5----|
|--10--(10)--10--(10)--10--(10)-|-----------5--------5-|
|-------------------------------|--------------5-------|


  Eb5
    E    E    E    E    E    E      E    E    E    E    E    E
|-------------------------------|-------------------------------|
|-------------------------------|-------------------------------|
|--12---12---12---12---12---12--|--12---12---12---12---12---12--|
|---x----x----x----x----x----x--|---x----x----x----x----x----x--|
|--10---10---10---10---10---10--|--10---10---10---10---10---10--|
|-------------------------------|-------------------------------|
|
|   PM-----------------------------------------------------------
|   E    E    E    E    E    E      E    E    E    E    E    E
|-------------------------------|-------------------------------|
|-------------------------------|-------------------------------|
|-------------------------------|-------------------------------|
|---8----8----8----8----8----8--|---8----8----8----8----8----8--|
|---6----6----6----6----6----6--|---6----6----6----6----6----6--|
|-------------------------------|-------------------------------|
|
|   E    E    E    E    E    E      E    E    E    E    E    E
|-------------------------------|-------------------------------|
|-------------------------------|-------------------------------|
|-(10)--10--(10)--10--(10)--10--|-(10)--10--(10)--10--(10)--10--|
|---8----8----8----8----8----8--|---8----8----8----8----8----8--|
|--10--(10)--10--(10)--10--(10)-|--10--(10)--10--(10)--10--(10)-|
|-------------------------------|-------------------------------|


                                  Bb5/G
    E    E    E    E    E    E      E    E    E    E    E    E
|-------------------------------|-------------------------------|
|-------------------------------|-------------------------------|
|--12---12---12---12---12---12--|--12s==14---14---14---14---14--|
|---x----x----x----x----x----x--|---x----x----x----x----x----x--|
|--10---10---10---10---10---10--|--10s==12---12---12---12---12--|
|-------------------------------|-------------------------------|
|
|--------------------------|                  PM-----------|
|   E    E    E    E    E    E      E    E    E    E    E    E
|-------------------------------|-------------------------------|
|-------------------------------|-------------------------------|
|-------------------------------|-------------------------------|
|---8----8----8----8----8----8--|---5s===7--------------5-------|
|---6----6----6----6----6----6--|-------------5--------------5--|
|-------------------------------|------------------5------------|
|
|   E    E    E    E    E    E      E    E    E    E    E    E
|-------------------------------|-------------------------------|
|-------------------------------|-------------------------------|
|-(10)--10--(10)--10--(10)--10--|-(10)--10--(10)--10--(10)--10--|
|---8----8----8----8----8----8--|---8----8----8----8----8----8--|
|--10--(10)--10--(10)--10--(10)-|--10--(10)--10--(10)--10--(10)-|
|-------------------------------|-------------------------------|


  Eb5
    E    E    E    E    E    E      E    E    E    E    E    E
|-------------------------------|-------------------------------|
|-------------------------------|-------------------------------|
|--15---15---15---15---15---15--|--15---15---15---15---15---15--|
|---x----x----x----x----x----x--|---x----x----x----x----x----x--|
|--13---13---13---13---13---13--|--13---13---13---13---13---13--|
|-------------------------------|-------------------------------|
|
|   PM-----------------------------------------------------|
|   E    E    E    E    E    E      E    E    E    E    E    E
|-------------------------------|-------------------------------|
|-------------------------------|-------------------------------|
|-------------------------------|-------------------------------|
|---8----8----8----8----8----8--|---8----8----8----8----8----8--|
|---6----6----6----6----6----6--|---6----6----6----6----6----6--|
|-------------------------------|-------------------------------|
|
|   E    E    E    E    E    E      E    E    E    E    E    E
|-------------------------------|-------------------------------|
|-------------------------------|-------------------------------|
|-(10)--10--(10)--10--(10)--10--|-(10)--10--(10)--10--(10)--10--|
|---8----8----8----8----8----8--|---8----8----8----8----8----8--|
|--10--(10)--10--(10)--10--(10)-|--10--(10)--10--(10)--10--(10)-|
|-------------------------------|-------------------------------|


    F5              Bb5
  E  E E  E  E  E    E  E  E  E  E  E
|-----------------|-------------13-10-|
|-----------------|-------------------|
|-----------------|-------------------|
|-x--3----3--3--3-|--8--8--8--8-------|
|-x--3----3--3--3-|--8--8--8--8-------|
|-x--3----3--3--3-|--8--8--8--8-------|
|
| E  E E  E  E  E    E  E  E  E  Q
|-----------------|-------------------|
|-----------------|-------------------|
|-----------------|-------------------|
|-x--3----3--3--3-|--8--8--8--8-------|
|-x--3----3--3--3-|--8--8--8--8-------|
|-x--3----3--3--3-|--8--8--8--8-------|
|
| E  E E  E  E  E    E  E  E  E  Q
|-----------------|-------------------|
|-----------------|-10-10-10-10-------|
|-x-10---10-10-10-|-10-10-10-10-------|
|-x--8----8--8--8-|--8--8--8--8-------|
|-x-10---10-10-10-|-10-10-10-10-------|
|-----------------|-------------------|


 Chorus
  G5                                Bb5
 3/4
  Gtrs I, III
   Q.      Q   E    H        Q       Q.      Q   E    H        Q
|----------------|----------------|----------------|----------------|
|----------------|----------------|----------------|----------------|
|----------------|----------------|----------------|----------------|
|--5-------5---5-|--5--------5----|--8-------8---8-|--8--------8----|
|--5-------5---5-|--5--------5----|--8-------8---8-|--8--------8----|
|--5-------5---5-|--5--------5----|--8-------8---8-|--8--------8----|
|
| Gtr II
|  Q    E  Q   E    Q   E  Q    E    Q    E  Q   E    Q   E  Q    E
|-10---10--------|----------------|-13---13--------|-13--13---------|
|----------------|-11--11---------|---------10--10-|--------10---10-|
|---------12--12-|--------12---12-|----------------|----------------|
|----------------|----------------|----------------|----------------|
|----------------|----------------|----------------|----------------|
|----------------|----------------|----------------|----------------|


  Eb5                            F5
  Q.      Q   E   H        Q     Q.      Q   E   E Q    Q   E
|---------------|--------------|---------------|--------------|
|---------------|--------------|---------------|--------------|
|---------------|--------------|---------------|--------------|
|-1-------1---1-|-1--------1---|-3-------3---3-|-3-3----3---3-|
|-1-------1---1-|-1--------1---|-3-------3---3-|-3-3----3---3-|
|-1-------1---1-|-1--------1---|-3-------3---3-|-3-3----3---3-|
|
| E  E  E E E E   E E  E E E E   E  E  E E E E   E E  E E E E
|-6----10-----5-|-6---10-----5-|-6----10-----5-|-6---10-----5-|
|----8----6-8---|---8----6-8---|----8----6-8---|---8----6-8---|
|---------------|--------------|---------------|--------------|
|---------------|--------------|---------------|--------------|
|---------------|--------------|---------------|--------------|
|---------------|--------------|---------------|--------------|


  G5                                Bb5
   Q.      Q   E    H        Q       Q.      Q   E    H        Q
|----------------|----------------|----------------|----------------|
|----------------|----------------|----------------|----------------|
|----------------|----------------|----------------|----------------|
|--5-------5---5-|--5--------5----|--8-------8---8-|--8--------8----|
|--5-------5---5-|--5--------5----|--8-------8---8-|--8--------8----|
|--5-------5---5-|--5--------5----|--8-------8---8-|--8--------8----|
|
|  Q    E  Q   E    Q   E  Q    E    Q    E  Q   E    Q   E  Q    E
|-10---10--------|----------------|-13---13--------|-13--13---------|
|----------------|-11--11---------|---------10--10-|--------10---10-|
|---------12--12-|--------12---12-|----------------|----------------|
|----------------|----------------|----------------|----------------|
|----------------|----------------|----------------|----------------|
|----------------|----------------|----------------|----------------|


  Eb5                            F5
  Q.      Q   E   H        Q     E Q    Q   E   E Q    Q   E
|---------------|--------------|--------------|--------------|
|---------------|--------------|--------------|--------------|
|---------------|--------------|--------------|--------------|
|-1-------1---1-|-1--------1---|-3-3----3---3-|-3-3----3---3-|
|-1-------1---1-|-1--------1---|-3-3----3---3-|-3-3----3---3-|
|-1-------1---1-|-1--------1---|-3-3----3---3-|-3-3----3---3-|
|
| E  E  E E E E   E E  E E E E   E E  E E E E   E E  E E E E
|-6----10-----5-|-6---10-----5-|-6---10-----5-|-6---10-----5-|
|----8----6-8---|---8----6-8---|---8----6-8---|---8----6-8---|
|---------------|--------------|--------------|--------------|
|---------------|--------------|--------------|--------------|
|---------------|--------------|--------------|--------------|
|---------------|--------------|--------------|--------------|


  G5                                Bb5
   Q.      Q   E    H        Q       Q.      Q   E    H        Q
|----------------|----------------|----------------|----------------|
|----------------|----------------|----------------|----------------|
|----------------|----------------|----------------|----------------|
|--5-------5---5-|--5--------5----|--8-------8---8-|--8--------8----|
|--5-------5---5-|--5--------5----|--8-------8---8-|--8--------8----|
|--5-------5---5-|--5--------5----|--8-------8---8-|--8--------8----|
|
|  Q    E  Q   E    Q   E  Q    E    Q    E  Q   E    Q   E  Q    E
|---------18--18-|-17--17---------|---------18--18-|-17--17---------|
|-15---15--------|--------18---18-|-15---15--------|--------18---18-|
|----------------|----------------|----------------|----------------|
|----------------|----------------|----------------|----------------|
|----------------|----------------|----------------|----------------|
|----------------|----------------|----------------|----------------|


  Eb5                               F5
   Q.      Q   E    H        Q       Q.      Q   E    E Q     Q   E
|----------------|----------------|----------------|----------------|
|----------------|----------------|----------------|----------------|
|----------------|----------------|----------------|----------------|
|--1-------1---1-|--1--------1----|--3-------3---3-|--3-3-----3---3-|
|--1-------1---1-|--1--------1----|--3-------3---3-|--3-3-----3---3-|
|--1-------1---1-|--1--------1----|--3-------3---3-|--3-3-----3---3-|
|
|  Q    E  Q   E    Q   E  Q    E    Q    E  Q   E    Q    E  Q   E
|---------18--18-|-17--17---------|-17---17-18--18-|-17---17--------|
|-15---15--------|--------18---18-|----------------|---------18--18-|
|----------------|----------------|----------------|----------------|
|----------------|----------------|----------------|----------------|
|----------------|----------------|----------------|----------------|
|----------------|----------------|----------------|----------------|


  G5                                Bb5
   Q.      Q   E    H        Q       Q.      Q   E    H        Q
|----------------|----------------|----------------|----------------|
|----------------|----------------|----------------|----------------|
|----------------|----------------|----------------|----------------|
|--5-------5---5-|--5--------5----|--8-------8---8-|--8--------8----|
|--5-------5---5-|--5--------5----|--8-------8---8-|--8--------8----|
|--5-------5---5-|--5--------5----|--8-------8---8-|--8--------8----|
|
|  Q    E  Q   E    Q   E  Q    E    Q    E  Q   E    Q   E  Q    E
|---------18--18-|-17--17---------|---------18--18-|-17--17---------|
|-15---15--------|--------18---18-|-15---15--------|--------18---18-|
|----------------|----------------|----------------|----------------|
|----------------|----------------|----------------|----------------|
|----------------|----------------|----------------|----------------|
|----------------|----------------|----------------|----------------|


  Eb5                               F5
   Q.      Q   E    H        Q       E Q     Q   E    E Q     Q   E
|----------------|----------------|----------------|----------------|
|----------------|----------------|----------------|----------------|
|----------------|----------------|----------------|----------------|
|--1-------1---1-|--1--------1----|--3-3-----3---3-|--3-3-----3---3-|
|--1-------1---1-|--1--------1----|--3-3-----3---3-|--3-3-----3---3-|
|--1-------1---1-|--1--------1----|--3-3-----3---3-|--3-3-----3---3-|
|
|  Q    E  Q   E    Q   E  Q    E    Q    E  Q   E    Q    E  Q   E
|---------18--18-|-17--17---------|-17---17-18--18-|-17---17--------|
|-15---15--------|--------18---18-|----------------|---------18--18-|
|----------------|----------------|----------------|----------------|
|----------------|----------------|----------------|----------------|
|----------------|----------------|----------------|----------------|
|----------------|----------------|----------------|----------------|


 Breakdown
  G5     N.C.
  Gtr I
   E   E  E  E  E  E    E  E  E  E  E  E
|--------------------|-------------------|
|--6---8-----6-------|--6--8-----6-------|
|---------7-----7----|--------7-----7----|
|------------------8-|-----------------8-|
|--------------------|-------------------|
|--------------------|-------------------|
|
| Gtr II
|  E   E  E  E  E  E    E  E  E  E  E  E
|-10--11----10-------|-10-11----10-------|
|--------13----11----|-------13----11----|
|-----------------12-|----------------12-|
|--------------------|-------------------|
|--------------------|-------------------|
|--------------------|-------------------|
|
| Gtr III
|  Q      H             W
|--------------------|-------------------|
|--------------------|-------------------|
|--------------------|-------------------|
|--5\----------------|-------------------|
|--5\----------------|-------------------|
|--5\----------------|-------------------|


                                  F5
   E  E  E  E  E  E    E  E  E  E  E  E
|-------------------|-------------------|
|--6--8-----6-------|--6--8-----6-------|
|--------7-----7----|--------7-----7----|
|-----------------8-|-----------------8-|
|-------------------|-------------------|
|-------------------|-------------------|
|
|  E  E  E  E  E  E    E  E  E  E  E  E
|-10-11----10-------|-10-11----10-------|
|-------13----11----|-------13----11----|
|----------------12-|----------------12-|
|-------------------|-------------------|
|-------------------|-------------------|
|-------------------|-------------------|
|
|  W                   H           Q
|-------------------|-------------------|
|-------------------|-------------------|
|-------------------|-------------------|
|-------------------|--------------3----|
|-------------------|--------------3----|
|-------------------|--------------3----|


  Eb5                                          C5       F5
  E E  E E E E   E E  E E E E   E E  E E E E   E E  E E E E
|--------------|--------------|--------------|--------------|
|------6-------|------6-------|------6-------|------6-------|
|-7----------5-|-7----------5-|-7----------5-|-7----------5-|
|---8----7-8---|---8----7-8---|---8----7-8---|---8----7-8---|
|--------------|--------------|--------------|--------------|
|--------------|--------------|--------------|--------------|
|
| E E  E E E E   E E  E E E E   E E  E E E E   E E  E E E E
|-6---10-----5-|-6---10-----5-|-6---10-----5-|-6---10-----5-|
|---8----6-8---|---8----6-8---|---8----6-8---|---8----6-8---|
|--------------|--------------|--------------|--------------|
|--------------|--------------|--------------|--------------|
|--------------|--------------|--------------|--------------|
|--------------|--------------|--------------|--------------|
|
| E E  E E Q     E E  E E Q     E E  E E Q     E E  E E E E
|--------------|--------------|--------------|--------------|
|--------------|--------------|--------------|--------------|
|--------------|--------------|--------------|-5-5--5-5-----|
|-1-1--1-1-----|-1-1--1-1-----|-1-1--1-1-----|-5-5--5-5-3-3-|
|-1-1--1-1-----|-1-1--1-1-----|-1-1--1-1-----|-3-3--3-3-3-3-|
|-1-1--1-1-----|-1-1--1-1-----|-1-1--1-1-----|----------3-3-|


  G#5
   E  E  E  E  E  E    E  E  E  E  E  E
|-------------------|-------------------|
|--6--8-----6-------|--6--8-----6-------|
|--------7-----7----|--------7-----7----|
|-----------------8-|-----------------8-|
|-------------------|-------------------|
|-------------------|-------------------|
|
|  E  E  E  E  E  E    E  E  E  E  E  E
|-10-11----10-------|-10-11----10-------|
|-------13----11----|-------13----11----|
|----------------12-|----------------12-|
|-------------------|-------------------|
|-------------------|-------------------|
|-------------------|-------------------|
|
|  E  E  E  E  Q       E  E  E  E  Q
|-------------------|-------------------|
|-------------------|-------------------|
|-------------------|-------------------|
|--6--6--6--6-------|--6--6--6--6-------|
|--6--6--6--6-------|--6--6--6--6-------|
|--6--6--6--6-------|--6--6--6--6-------|


                            Bb5   G5
   E  E  E  E  E  E    E  E  E  E  E  E
|-------------------|-------------------|
|--6--8-----6-------|--6--8-----6-------|
|--------7-----7----|--------7-----7----|
|-----------------8-|-----------------8-|
|-------------------|-------------------|
|-------------------|-------------------|
|
|  E  E  E  E  E  E    E  E  E  E  E  E
|-10-11----10-------|-10-11----10-------|
|-------13----11----|-------13----11----|
|----------------12-|----------------12-|
|-------------------|-------------------|
|-------------------|-------------------|
|-------------------|-------------------|
|
|  E  E  E  E  Q       E  E  E  E  E  E
|-------------------|-------------------|
|-------------------|-------------------|
|-------------------|-------------------|
|--6--6--6--6-------|--6--6--8--8--5--5-|
|--6--6--6--6-------|--6--6--8--8--5--5-|
|--6--6--6--6-------|--6--6--8--8--5--5-|


  Eb5                                             C5       F5
  E E  E E E  E   E E  E E E  E   E E  E E E  E   E E  E E E  E
|---------------|---------------|---------------|---------------|
|------6--------|------6--------|------6--------|------6--------|
|-7-----------5-|-7-----------5-|-7-----------5-|-7-----------5-|
|---8----7-8----|---8----7-8----|---8----7-8----|---8----7-8----|
|---------------|---------------|---------------|---------------|
|---------------|---------------|---------------|---------------|
|
| E E  E E E  E   E E  E E E  E   E E  E E E  E   E E  E E E  E
|-6---10--------|-6---10--------|-6---10--------|-6---10--------|
|---8----6-8-10-|---8----6-8-10-|---8----6-8-10-|---8----6-8-10-|
|---------------|---------------|---------------|---------------|
|---------------|---------------|---------------|---------------|
|---------------|---------------|---------------|---------------|
|---------------|---------------|---------------|---------------|
|
| E E  E E Q      E E  E E Q      E E  E E Q      E E  E E E  E
|---------------|---------------|---------------|---------------|
|---------------|---------------|---------------|---------------|
|---------------|---------------|---------------|-5-5--5-5------|
|-1-1--1-1------|-1-1--1-1------|-1-1--1-1------|-5-5--5-5-3--3-|
|-1-1--1-1------|-1-1--1-1------|-1-1--1-1------|-3-3--3-3-3--3-|
|-1-1--1-1------|-1-1--1-1------|-1-1--1-1------|----------3--3-|


  G#5                                                         Bb5
   E  E  E  E  E  E    E  E  E  E  E  E    E  E  E  E  E  E    E H        E
|-------------------|-------------------|-------------------|---------------|
|--6--8-----6-------|--6--8-----6-------|--6--8-----6-------|--6------------|
|--------7-----7----|--------7-----7----|--------7-----7----|---------------|
|-----------------8-|-----------------8-|-----------------8-|---------------|
|-------------------|-------------------|-------------------|---------------|
|-------------------|-------------------|-------------------|---------------|
|
|  E  E  E  E  E  E    E  E  E  E  E  E    E  E  E  E  E  E    E E  Q   Q
|-10-11----10-------|-10-11----10-------|-10-11----10-------|-10---13--10---|
|-------13----11----|-------13----11----|-------13----11----|---------------|
|----------------12-|----------------12-|----------------12-|---------------|
|-------------------|-------------------|-------------------|---------------|
|-------------------|-------------------|-------------------|---------------|
|-------------------|-------------------|-------------------|---------------|
|
|  E  E  E  E  Q       E  E  E  E  Q       E  E  E  E  E  E    E E  H
|-------------------|-------------------|-------------------|---------------|
|-------------------|-------------------|-------------------|---------------|
|-------------------|-------------------|-------------------|---------------|
|--6--6--6--6-------|--6--6--6--6-------|--6--6--6--6--6--6-|--8------------|
|--6--6--6--6-------|--6--6--6--6-------|--6--6--6--6--6--6-|--8------------|
|--6--6--6--6-------|--6--6--6--6-------|--6--6--6--6--6--6-|--8------------|


 Chorus
  G5                                F5/Bb
  Gtrs I, III
   Q.      Q   E    H        Q       Q.      Q   E    H         Q
|----------------|----------------|----------------|-----------------|
|----------------|----------------|----------------|-----------------|
|----------------|----------------|----------------|-----------------|
|--5-------5---5-|--5--------5----|-10------10--10-|-10--------10----|
|--5-------5---5-|--5--------5----|--8-------8---8-|--8---------8----|
|--5-------5---5-|--5--------5----|--8-------8---8-|--8---------8----|
|
| Gtr II
|  Q    E  Q   E    Q   E  Q    E    Q    E  Q   E    Q   E  Q     E
|-10---10--------|----------------|-13---13--------|-13--13----------|
|----------------|-11--11---------|---------10--10-|--------10----10-|
|---------12--12-|--------12---12-|----------------|-----------------|
|----------------|----------------|----------------|-----------------|
|----------------|----------------|----------------|-----------------|
|----------------|----------------|----------------|-----------------|


  Eb5                              F5
  Q.      Q    E   H        Q      Q.      Q    E   E Q    Q    E
|----------------|---------------|----------------|---------------|
|----------------|---------------|----------------|---------------|
|----------------|---------------|-5-------5----5-|-5-5----5----5-|
|-1-------1----1-|-1--------1----|-3-------3----3-|-3-3----3----3-|
|-1-------1----1-|-1--------1----|-3-------3----3-|-3-3----3----3-|
|-1-------1----1-|-1--------1----|-3-------3----3-|-3-3----3----3-|
|
| E  E  E E E  E   E E  E E E  E   E  E  E E E  E   E E  E E E  E
|-6----10--------|-6---10--------|-6----10--------|-6---10--------|
|----8----6-8-10-|---8----6-8-10-|----8----6-8-10-|---8----6-8-10-|
|----------------|---------------|----------------|---------------|
|----------------|---------------|----------------|---------------|
|----------------|---------------|----------------|---------------|
|----------------|---------------|----------------|---------------|


  G5                                F5/Bb
   Q.      Q   E    H        Q       Q.      Q   E    H         Q
|----------------|----------------|----------------|-----------------|
|----------------|----------------|----------------|-----------------|
|----------------|----------------|----------------|-----------------|
|--5-------5---5-|--5--------5----|-10------10--10-|-10--------10----|
|--5-------5---5-|--5--------5----|--8-------8---8-|--8---------8----|
|--5-------5---5-|--5--------5----|--8-------8---8-|--8---------8----|
|
|  Q    E  Q   E    Q   E  Q    E    Q    E  Q   E    Q   E  Q     E
|-10---10--------|----------------|-13---13--------|-13--13----------|
|----------------|-11--11---------|---------10--10-|--------10----10-|
|---------12--12-|--------12---12-|----------------|-----------------|
|----------------|----------------|----------------|-----------------|
|----------------|----------------|----------------|-----------------|
|----------------|----------------|----------------|-----------------|


  Eb5                              F5
  Q.      Q    E   H        Q      E Q    Q    E   E Q    Q    E
|----------------|---------------|---------------|---------------|
|----------------|---------------|---------------|---------------|
|----------------|---------------|-5-5----5----5-|-5-5----5----5-|
|-1-------1----1-|-1--------1----|-3-3----3----3-|-3-3----3----3-|
|-1-------1----1-|-1--------1----|-3-3----3----3-|-3-3----3----3-|
|-1-------1----1-|-1--------1----|-3-3----3----3-|-3-3----3----3-|
|
| E  E  E E E  E   E E  E E E  E   E E  E E E  E   E E  E E E  E
|-6----10--------|-6---10--------|-6---10--------|-6---10--------|
|----8----6-8-10-|---8----6-8-10-|---8----6-8-10-|---8----6-8-10-|
|----------------|---------------|---------------|---------------|
|----------------|---------------|---------------|---------------|
|----------------|---------------|---------------|---------------|
|----------------|---------------|---------------|---------------|


    G5                                F5/Bb
     Q.      Q   E    H        Q       Q.      Q   E    H         Q
||-----------------|----------------|----------------|-----------------|
||o----------------|----------------|----------------|-----------------|
||-----------------|----------------|----------------|-----------------|
||---5-------5---5-|--5--------5----|-10------10--10-|-10--------10----|
||o--5-------5---5-|--5--------5----|--8-------8---8-|--8---------8----|
||---5-------5---5-|--5--------5----|--8-------8---8-|--8---------8----|
|
|    Q    E  Q   E    Q   E  Q    E    Q    E  Q   E    Q   E  Q     E
||----------18--18-|-17--17---------|---------18--18-|-17--17----------|
||o-15---15--------|--------18---18-|-15---15--------|--------18----18-|
||-----------------|----------------|----------------|-----------------|
||-----------------|----------------|----------------|-----------------|
||o----------------|----------------|----------------|-----------------|
||-----------------|----------------|----------------|-----------------|


  Eb5                               F5
   Q.      Q   E    H        Q       Q.      Q   E    E Q     Q   E
|----------------|----------------|----------------|----------------|
|----------------|----------------|----------------|----------------|
|----------------|----------------|--5-------5---5-|--5-5-----5---5-|
|--1-------1---1-|--1--------1----|--3-------3---3-|--3-3-----3---3-|
|--1-------1---1-|--1--------1----|--3-------3---3-|--3-3-----3---3-|
|--1-------1---1-|--1--------1----|--3-------3---3-|--3-3-----3---3-|
|
|  Q    E  Q   E    Q   E  Q    E    Q    E  Q   E    Q    E  Q   E
|---------18--18-|-17--17---------|-17---17-18--18-|-17---17--------|
|-15---15--------|--------18---18-|----------------|---------18--18-|
|----------------|----------------|----------------|----------------|
|----------------|----------------|----------------|----------------|
|----------------|----------------|----------------|----------------|
|----------------|----------------|----------------|----------------|


  G5                                F5/Bb
   Q.      Q   E    H        Q       Q.      Q   E    H         Q
|----------------|----------------|----------------|-----------------|
|----------------|----------------|----------------|-----------------|
|----------------|----------------|----------------|-----------------|
|--5-------5---5-|--5--------5----|-10------10--10-|-10--------10----|
|--5-------5---5-|--5--------5----|--8-------8---8-|--8---------8----|
|--5-------5---5-|--5--------5----|--8-------8---8-|--8---------8----|
|
|  Q    E  Q   E    Q   E  Q    E    Q    E  Q   E    Q   E  Q     E
|---------18--18-|-17--17---------|---------18--18-|-17--17----------|
|-15---15--------|--------18---18-|-15---15--------|--------18----18-|
|----------------|----------------|----------------|-----------------|
|----------------|----------------|----------------|-----------------|
|----------------|----------------|----------------|-----------------|
|----------------|----------------|----------------|-----------------|


  Eb5                               F5
   Q.      Q   E    H        Q       E Q     Q   E    E Q     Q   E
|----------------|----------------|----------------|-----------------||
|----------------|----------------|----------------|----------------o||
|----------------|----------------|--5-5-----5---5-|--5-5-----5---5--||
|--1-------1---1-|--1--------1----|--3-3-----3---3-|--3-3-----3---3--||
|--1-------1---1-|--1--------1----|--3-3-----3---3-|--3-3-----3---3-o||
|--1-------1---1-|--1--------1----|--3-3-----3---3-|--3-3-----3---3--||
|
|  Q    E  Q   E    Q   E  Q    E    Q    E  Q   E    Q    E  Q   E
|---------18--18-|-17--17---------|-17---17-18--18-|-17---17---------||
|-15---15--------|--------18---18-|----------------|---------18--18-o||
|----------------|----------------|----------------|-----------------||
|----------------|----------------|----------------|-----------------||
|----------------|----------------|----------------|----------------o||
|----------------|----------------|----------------|-----------------||


 Outro
  G5
  Gtr IV
   Q    Q  Q      Q    Q  Q      Q    Q  Q      Q    Q  Q
|------10-----|-------10-----|-------10-----|-------10-----|
|----------8--|-----------8--|-----------8--|-----------8--|
|-10----------|--10----------|--10----------|--10----------|
|-------------|--------------|--------------|--------------|
|-------------|--------------|--------------|--------------|
|-------------|--------------|--------------|--------------|
|
| Gtrs I, III
|  >
|  H.            +H.            +H.            +H.
|-------------|--------------|--------------|--------------|
|-------------|--------------|--------------|--------------|
|-------------|--------------|--------------|--------------|
|--5----------|--(5)---------|--(5)---------|--(5)---------|
|--5----------|--(5)---------|--(5)---------|--(5)---------|
|--5----------|--(5)---------|--(5)---------|--(5)---------|
|
| Gtr II
|  >
|  H.            +H.            +H.            +H.
|-------------|--------------|--------------|--------------|
|-15----------|-(15)---------|-(15)---------|-(15)---------|
|-------------|--------------|--------------|--------------|
|-------------|--------------|--------------|--------------|
|-------------|--------------|--------------|--------------|
|-------------|--------------|--------------|--------------|


    Q   Q  Q      Q   Q   Q     Q   Q   Q      Q   Q  Q
|-------6-----|-------6------|------5------|-------5-----|
|----------8--|-----------8--|----------6--|----------6--|
|-------------|--------------|-------------|-------------|
|---8---------|---8----------|--7----------|---7---------|
|-------------|--------------|-------------|-------------|
|-------------|--------------|-------------|-------------|
|
|  +H.           +H.           +H.            +H.
|-------------|--------------|-------------|-------------|
|-------------|--------------|-------------|-------------|
|-------------|--------------|-------------|-------------|
|--(5)--------|--(5)---------|-(5)---------|--(5)--------|
|--(5)--------|--(5)---------|-(5)---------|--(5)--------|
|--(5)--------|--(5)---------|-(5)---------|--(5)--------|
|
|                         >
|  +H.           +H       Q     H       Q     +H.
|-------------|--------------|-------------|-------------|
|-(15)--------|-(15)---------|-------------|-------------|
|-------------|----------15--|-14----------|-------------|
|-------------|--------------|---------15--|-(15)--------|
|-------------|--------------|-------------|-------------|
|-------------|--------------|-------------|-------------|


  N.C.
  Gtr IV
   Q    Q   Q      Q    Q   Q     Q    Q   Q      Q    Q   Q
|------10------|-------10------|------10------|-------10------|
|-----------8--|------------8--|-----------8--|------------8--|
|-10-----------|--10-----------|-10-----------|--10-----------|
|--------------|---------------|--------------|---------------|
|--------------|---------------|--------------|---------------|
|--------------|---------------|--------------|---------------|
|
| Gtr V
|  Q    Q   Q      Q    Q   Q     Q    Q   Q      Q    Q   Q
|----------10--|-----------10--|----------13--|-----------13--|
|------11------|-------11------|------11------|-------11------|
|-12-----------|--12-----------|-12-----------|--12-----------|
|--------------|---------------|--------------|---------------|
|--------------|---------------|--------------|---------------|
|--------------|---------------|--------------|---------------|
|
| Gtr II
|  <               >              <               >
|  H.             +H.             H.             +H.
|--------------|---------------|-10-----------|-(10)----------|
|-11-----------|-(11)----------|-11-----------|-(11)----------|
|-12-----------|-(12)----------|--------------|---------------|
|--------------|---------------|--------------|---------------|
|--------------|---------------|--------------|---------------|
|--------------|---------------|--------------|---------------|


   Q    Q   Q      Q    Q   Q     Q    Q   Q      Q    Q   Q
|-------6------|--------6------|-------5------|--------5------|
|-----------8--|------------8--|-----------6--|------------6--|
|--------------|---------------|--------------|---------------|
|--8-----------|---8-----------|--7-----------|---7-----------|
|--------------|---------------|--------------|---------------|
|--------------|---------------|--------------|---------------|
|
|  Q    Q   Q      Q    Q   Q     Q    Q   Q      Q    Q   Q
|--------------|---------------|--------------|---------------|
|----------10--|-----------10--|----------13--|-----------13--|
|------10------|-------10------|------10------|-------10------|
|-12-----------|--12-----------|-12-----------|--12-----------|
|--------------|---------------|--------------|---------------|
|--------------|---------------|--------------|---------------|
|
|  <               >              <               >
|  H.             +H.             H.             +H.
|--------------|---------------|-13-----------|-(13)----------|
|-10-----------|-(10)----------|-13-----------|-(13)----------|
|-10-----------|-(10)----------|--------------|---------------|
|--------------|---------------|--------------|---------------|
|--------------|---------------|--------------|---------------|
|--------------|---------------|--------------|---------------|


  Gtr IV
   Q   Q   Q     Q   Q   Q     Q   Q   Q     Q   Q   Q
|-----10------|-----10------|-----10------|-----10------|
|----------8--|----------8--|----------8--|----------8--|
|-10----------|-10----------|-10----------|-10----------|
|-------------|-------------|-------------|-------------|
|-------------|-------------|-------------|-------------|
|-------------|-------------|-------------|-------------|
|
| Gtr V
|  Q   Q   Q     Q   Q   Q     Q   Q   Q     Q   Q   Q
|---------10--|---------10--|---------13--|---------13--|
|-----11------|-----11------|-----11------|-----11------|
|-12----------|-12----------|-12----------|-12----------|
|-------------|-------------|-------------|-------------|
|-------------|-------------|-------------|-------------|
|-------------|-------------|-------------|-------------|


   Q   Q   Q     Q   Q   Q     Q   Q   Q     Q   Q   Q
|------6------|------6------|------5------|------5------|
|----------8--|----------8--|----------6--|----------6--|
|-------------|-------------|-------------|-------------|
|--8----------|--8----------|--7----------|--7----------|
|-------------|-------------|-------------|-------------|
|-------------|-------------|-------------|-------------|
|
|  Q   Q   Q     Q   Q   Q     Q   Q   Q     Q   Q   Q
|-------------|-------------|-------------|-------------|
|---------10--|---------10--|---------13--|---------13--|
|-----10------|-----10------|-----10------|-----10------|
|-12----------|-12----------|-12----------|-12----------|
|-------------|-------------|-------------|-------------|
|-------------|-------------|-------------|-------------|


   Q   Q     Q     Q   Q   Q     Q   Q     Q     Q   Q   Q
|-----10--------|-----10------|-----10--------|-----10------|
|------------8--|----------8--|------------8--|----------8--|
|-10------------|-10----------|-10------------|-10----------|
|---------------|-------------|---------------|-------------|
|---------------|-------------|---------------|-------------|
|---------------|-------------|---------------|-------------|
|
|  Q   Q     Q     Q   Q   Q     Q   Q     Q     Q   Q   Q
|-----------10--|---------10--|-----------13--|---------13--|
|-----11--------|-----11------|-----11--------|-----11------|
|-12------------|-12----------|-12------------|-12----------|
|---------------|-------------|---------------|-------------|
|---------------|-------------|---------------|-------------|
|---------------|-------------|---------------|-------------|
|
| Gtr III
|  Q   E  E  Q     Q   Q   Q     Q   E  E  Q     Q   Q   Q
|-----17-18-18--|-18--17------|-----17-18-18--|-18--17------|
|---------------|---------18--|---------------|---------18--|
|---------------|-------------|---------------|-------------|
|---------------|-------------|---------------|-------------|
|---------------|-------------|---------------|-------------|
|---------------|-------------|---------------|-------------|


   Q    Q   Q      Q    Q   Q
|-------6------|--------6--------|
|-----------8--|------------8----|
|--------------|-----------------|
|--8-----------|---8-------------|
|--------------|-----------------|
|--------------|-----------------|
|
|  Q    Q   Q      Q    Q   Q
|--------------|-----------------|
|----------10--|-----------10----|
|------10------|-------10--------|
|-12-----------|--12-------------|
|--------------|-----------------|
|--------------|-----------------|
|
|  H.             +H        E  E
|--------------|-----------17-18-|
|-20-----------|-(20)------------|
|--------------|-----------------|
|--------------|-----------------|
|--------------|-----------------|
|--------------|-----------------|


    Q         Q         Q           Q         Q        Q
|-------------5-----------------|-------------5-----------|
|-----------------------6-------|----------------------6--|
|-------------------------------|-------------------------|
|---7---------------------------|---7---------------------|
|-------------------------------|-------------------------|
|-------------------------------|-------------------------|
|
|   Q         Q         Q           Q         Q        Q
|-------------------------------|-------------------------|
|----------------------13-------|---------------------13--|
|------------10-----------------|------------10-----------|
|--12---------------------------|--12---------------------|
|-------------------------------|-------------------------|
|-------------------------------|-------------------------|
|
|        >
|   E    E    E    E    E    E      E    E    E    E   Q
|-(17)-(18)-(17)-(18)-(17)-(18)-|-(17)-(18)-(17)-(18)-----|
|-------------------------------|-------------------------|
|-------------------------------|-------------------------|
|-------------------------------|-------------------------|
|-------------------------------|-------------------------|
|-------------------------------|-------------------------|


   Q   Q     Q     Q   Q   Q     Q   Q     Q     Q   Q   Q
|-----10--------|-----10------|-----10--------|-----10------|
|------------8--|----------8--|------------8--|----------8--|
|-10------------|-10----------|-10------------|-10----------|
|---------------|-------------|---------------|-------------|
|---------------|-------------|---------------|-------------|
|---------------|-------------|---------------|-------------|
|
|  Q   Q     Q     Q   Q   Q     Q   Q     Q     Q   Q   Q
|-----------10--|---------10--|-----------13--|---------13--|
|-----11--------|-----11------|-----11--------|-----11------|
|-12------------|-12----------|-12------------|-12----------|
|---------------|-------------|---------------|-------------|
|---------------|-------------|---------------|-------------|
|---------------|-------------|---------------|-------------|
|
|  Q   E  E  Q     Q   Q   Q     Q   E  E  Q     Q   Q   Q
|-----17-18-18--|-18--17------|-----17-18-18--|-18--17------|
|---------------|---------18--|---------------|---------18--|
|---------------|-------------|---------------|-------------|
|---------------|-------------|---------------|-------------|
|---------------|-------------|---------------|-------------|
|---------------|-------------|---------------|-------------|


   Q    Q   Q      Q    Q   Q     Q     Q     Q       Q       Q   Q
|-------6------|--------6------|--------5----------|----------5------|
|-----------8--|------------8--|--------------6----|--------------6--|
|--------------|---------------|-------------------|-----------------|
|--8-----------|---8-----------|--7----------------|--7--------------|
|--------------|---------------|-------------------|-----------------|
|--------------|---------------|-------------------|-----------------|
|
|  Q    Q   Q      Q    Q   Q     Q     Q     Q       Q       Q   Q
|--------------|---------------|-------------------|-----------------|
|----------10--|-----------10--|-------------13----|-------------13--|
|------10------|-------10------|-------10----------|---------10------|
|-12-----------|--12-----------|-12----------------|-12--------------|
|--------------|---------------|-------------------|-----------------|
|----
Добавлено: 04.06.2012
Другие материалы по этой песне:

Страница создана 31.03.2012
http://primanota.ru/the-receiving-end-of-sirens/then-i-defy-you-stars-chords.htm
Привет, Гость.
Предлагаем пройти революционный курс по гитаре.
Подарок от PrimaNota.Ru, забирай!