PrimaNota.ru - самый крупный в мире бесплатный архив песенных текстов, аккордов, табулатур и нот


The Receiving End Of Sirens - The Rival Cycle - текст песни, таба, видео

Регистрация Запомнить меня
Войти через:  Facebook Google Twitter Vk Yandex Mail.ru

The Receiving End Of Sirens - The Rival Cycle - текст песни, таба, видео

Печатать
Просмотров: 73
Please note that I am not claiming this tab as my own -I have recovered it from the 
archive of TREOS's fansite "Flee The Factory" which ceased to exist sometime ago. I am sure 
will be of use to many of you.As recorded by The Receiving End Of Sirens
             (From the 2005 Album BETWEEN THE HEART AND THE SYNAPSE)

Words and Music by The Receiving End Of Sirens
Arranged by The Receiving End Of Sirens
Transcribed by Cordarro Collins

Gtr I (C G C F A D) - 'Untitled'
Gtr II (C G C F A D) - 'Untitled'
Gtr III (C G C F A D) - 'Untitled'
Gtr IV (C G C F A D) - 'Untitled'
Gtr V (C G C F A D) - 'Untitled'

 Intro
  Q=149
  N.C.
 4/4
  Gtr I
   E  E  E  E  E  E  E  E    E  E  E  E  E  E  E  E
|-------------------------|-------------------------|
|-------------13-13-------|-------------------------|
|-------10-10--------9--9-|-------------10-10--9--9-|
|-12-12-------------------|-12-12-10-10-------------|
|-------------------------|-------------------------|
|-------------------------|-------------------------|
|
| Gtr II
|  E  E  E  E  E  E  E  E    E  E  E  E  E  E  E  E
|-------------20-20-------|-------------------------|
|-------18-18-------17-17-|-------------18-18-17-17-|
|-19-19-------------------|-19-19-17-17-------------|
|-------------------------|-------------------------|
|-------------------------|-------------------------|
|-------------------------|-------------------------|


   E  E  E  E  E  E  E  E    E  E  E  E  E  E  E  E
|-------------------------|-------------------------|
|-------------13-13-------|-------------------------|
|-------10-10--------9--9-|-------------10-10--9--9-|
|-12-12-------------------|-12-12-10-10-------------|
|-------------------------|-------------------------|
|-------------------------|-------------------------|
|
|  E  E  E  E  E  E  E  E    E  E  E  E  E  E  E  E
|-------------20-20-------|-------------------------|
|-------18-18-------17-17-|-------------18-18-17-17-|
|-19-19-------------------|-19-19-17-17-------------|
|-------------------------|-------------------------|
|-------------------------|-------------------------|
|-------------------------|-------------------------|


  D5
  Gtr I
   E  E  E  E  E  E  E  E    E  E  E   E  E  E   E  E
|-------------------------|---------------------------|
|-------------13-13-------|---------------------------|
|-------10-10--------9--9-|--------------10-10---9--9-|
|-12-12-------------------|-12-12-10--10--------------|
|-------------------------|---------------------------|
|-------------------------|---------------------------|
|
| Gtr II
|  E  E  E  E  E  E  E  E    E  E  E   E  E  E   E  E
|-------------20-20-------|---------------------------|
|-------18-18-------17-17-|--------------18-18--17-17-|
|-19-19-------------------|-19-19-17--17--------------|
|-------------------------|---------------------------|
|-------------------------|---------------------------|
|-------------------------|---------------------------|
|
| Gtr III
|  H           E  E  Q       E  E  Q.        Q.
|-------------------------|---------------------------|
|-------------------------|---------------------------|
|--7-----------7--7-------|-----7------------7--------|
|--7-----------7--7-------|-----7------------7--------|
|--5-----------5--5-------|-----5------------5--------|
|-------------------------|---------------------------|


   E  E  E  E  E  E  E  E    E  E  E   E  E  E   E  E
|-------------------------|---------------------------|
|-------------13-13-------|---------------------------|
|-------10-10--------9--9-|--------------10-10---9--9-|
|-12-12-------------------|-12-12-10--10--------------|
|-------------------------|---------------------------|
|-------------------------|---------------------------|
|
|  E  E  E  E  E  E  E  E    E  E  E   E  E  E   E  E
|-------------20-20-------|---------------------------|
|-------18-18-------17-17-|--------------18-18--17-17-|
|-19-19-------------------|-19-19-17--17--------------|
|-------------------------|---------------------------|
|-------------------------|---------------------------|
|-------------------------|---------------------------|
|
|  H           E  E  Q       E  E  Q.        Q.
|-------------------------|---------------------------|
|-------------------------|---------------------------|
|--7-----------7--7-------|-----7------------7--------|
|--7-----------7--7-------|-----7------------7--------|
|--5-----------5--5-------|-----5------------5--------|
|-------------------------|---------------------------|


  F5
   E  E  E  E  E  E  E  E    E  E  E   E  E  E    E  E
|-------------------------|------------------------------|
|-------------13-13-------|------------------------------|
|-------10-10--------9--9-|--------------10-10----9--9---|
|-10-10-------------------|-12-12-10--10-----------------|
|-------------------------|------------------------------|
|-------------------------|------------------------------|
|
|  E  E  E  E  E  E  E  E    E  E  E   E  E  E    E  E
|-------------20-20-------|------------------------------|
|-------18-18-------17-17-|--------------18-18---17-17---|
|-17-17-------------------|-19-19-17--17-----------------|
|-------------------------|------------------------------|
|-------------------------|------------------------------|
|-------------------------|------------------------------|
|
|  H           E  E  Q       E  E  Q.        S S  E  S S
|-------------------------|------------------------------|
|-------------------------|------------------------------|
|--5-----------5--5-------|-----5------------5-5--5--5-5-|
|--3-----------3--3-------|-----3------------3-3--3--3-3-|
|--3-----------3--3-------|-----3------------3-3--3--3-3-|
|--3-----------3--3-------|-----3------------3-3--3--3-3-|


   E  E  E  E  E  E  E  E    E  E  E   E  E  E    E  E
|-------------------------|------------------------------|
|-------------13-13-------|------------------------------|
|-------10-10--------9--9-|--------------10-10----9--9---|
|-12-12-------------------|-12-12-10--10-----------------|
|-------------------------|------------------------------|
|-------------------------|------------------------------|
|
|  E  E  E  E  E  E  E  E    E  E  E   E  E  E    E  E
|-------------20-20-------|------------------------------|
|-------18-18-------17-17-|--------------18-18---17-17---|
|-19-19-------------------|-19-19-17--17-----------------|
|-------------------------|------------------------------|
|-------------------------|------------------------------|
|-------------------------|------------------------------|
|
|  E  E  E  E  H             E  E  Q.        S S  E  S S
|-------------------------|------------------------------|
|-------------------------|------------------------------|
|--5--5--5--5-------------|-----5------------5-5--5--5-5-|
|--3--3--3--3-------------|-----3------------3-3--3--3-3-|
|--3--3--3--3-------------|-----3------------3-3--3--3-3-|
|--3--3--3--3-------------|-----3------------3-3--3--3-3-|


  Bb5
   E  E  E  E  E  E  E  E    E  E  E   E  E  E  E  E
|-------------------------|--------------------------|
|-------------13-13-------|--------------------------|
|-------10-10--------9--9-|--------------10-10--9--9-|
|-12-12-------------------|-12-12-10--10-------------|
|-------------------------|--------------------------|
|-------------------------|--------------------------|
|
|  E  E  E  E  E  E  E  E    E  E  E   E  E  E  E  E
|-------------20-20-------|--------------------------|
|-------18-18-------17-17-|--------------18-18-17-17-|
|-19-19-------------------|-19-19-17--17-------------|
|-------------------------|--------------------------|
|-------------------------|--------------------------|
|-------------------------|--------------------------|
|
|  E  E  E  E  H             E  E  Q.        E  Q
|-------------------------|--------------------------|
|-------------------------|--------------------------|
|-------------------------|--------------------------|
|--8--8--8--8-------------|-----8------------8--8----|
|--8--8--8--8-------------|-----8------------8--8----|
|--8--8--8--8-------------|-----8------------8--8----|


                                            C5
   E  E  E  E  E  E  E  E    E  E  E   E  E  E  E  E
|-------------------------|--------------------------|
|-------------13-13-------|--------------------------|
|-------10-10--------9--9-|--------------10-10--9--9-|
|-12-12-------------------|-12-12-10--10-------------|
|-------------------------|--------------------------|
|-------------------------|--------------------------|
|
|  E  E  E  E  E  E  E  E    E  E  E   E  E  E  E  E
|-------------20-20-------|--------------------------|
|-------18-18-------17-17-|--------------18-18-17-17-|
|-19-19-------------------|-19-19-17--17-------------|
|-------------------------|--------------------------|
|-------------------------|--------------------------|
|-------------------------|--------------------------|
|
|  E  E  E  E  H             E  E  Q.        E  E  E
|-------------------------|--------------------------|
|-------------------------|--------------------------|
|-------------------------|--------------------------|
|--8--8--8--8-------------|-----8-----------10-10-10-|
|--8--8--8--8-------------|-----8-----------10-10-10-|
|--8--8--8--8-------------|-----8-----------10-10-10-|


  N.C.
             2/4
   W           +Q    Q
|-----------|------------|
|-----------|------------|
|-----------|------------|
|-12--------|-(12)--12\--|
|-----------|------------|
|-----------|------------|
|
|  W           +Q    Q
|-----------|------------|
|-----------|------------|
|-19--------|-(19)--19\--|
|-----------|------------|
|-----------|------------|
|-----------|------------|


 Verse
  Dm
 4/4
  Gtr IV
   W           W                 Q   Q   Q   Q     W
|-----------|-----------------|-----------------|-----------------|
|-----------|-----------------|-------------10--|-----------------|
|-----------|-10--------------|-----10--12------|-10--------------|
|-----------|-12--------------|-12--------------|-12--------------|
|-----------|-----------------|-----------------|-----------------|
|-----------|-----------------|-----------------|-----------------|
|
| Gtr V
|  W           Q   Q   Q   Q     W                 Q   Q   Q   Q
|-----------|-----------------|-----------------|-----------------|
|-----------|-------------10--|-----------------|-------------10--|
|-10--------|-----10--12------|-10--------------|-----10--12------|
|-12--------|-12--------------|-12--------------|-12--------------|
|-----------|-----------------|-----------------|-----------------|
|-----------|-----------------|-----------------|-----------------|


  Bb                        G5
  Gtr V
   W            W            W            W
|------------|------------|------------|--------|
|------------|------------|------------|--------|
|-(7)--------|-(7)--------|-(7)--------|--7-----|
|--8---------|--8---------|--5---------|-(5)----|
|------------|------------|------------|--------|
|------------|------------|------------|--------|


  Dm
  Gtr I
   W           Q   Q   Q   Q     W                 Q   Q   Q   Q
|-----------|-------------12--|-----------------|-------------13--|
|-----------|-----10--13------|-----------------|-----10--13------|
|-10--------|-10--------------|-10--------------|-10--------------|
|-12--------|-----------------|-12--------------|-----------------|
|-----------|-----------------|-----------------|-----------------|
|-----------|-----------------|-----------------|-----------------|
|
| Gtr IV
|  W           Q   Q   Q   Q     W                 Q   Q   Q   Q
|-----------|-----------------|-----------------|-----------------|
|-----------|-------------10--|-----------------|-------------10--|
|-10--------|-----10--12------|-10--------------|-----10--12------|
|-12--------|-12--------------|-12--------------|-12--------------|
|-----------|-----------------|-----------------|-----------------|
|-----------|-----------------|-----------------|-----------------|
|
| Gtr V
|  W           W                 Q   Q   Q   Q     W
|-----------|-----------------|-----------------|-----------------|
|-----------|-----------------|-------------10--|-----------------|
|-----------|-10--------------|-----10--12------|-10--------------|
|-----------|-12--------------|-12--------------|-12--------------|
|-----------|-----------------|-----------------|-----------------|
|-----------|-----------------|-----------------|-----------------|


  Bb                        G5
  Gtr I
                             <
   W            W            E   E  E  E  E  E  E  E    E   E  E  E  E  E  Q
|------------|------------|--------------------------|------------------------|
|-15---------|------------|-----------15-15-15-17-17-|-17--18-18-18-17-17-15--|
|------------|-12---------|-12--12-12----------------|------------------------|
|------------|------------|--------------------------|------------------------|
|------------|------------|--------------------------|------------------------|
|------------|------------|--------------------------|------------------------|
|
| Gtr IV
|  W            W            W                          W
|------------|------------|--------------------------|------------------------|
|------------|------------|--------------------------|------------------------|
|-(7)--------|-(7)--------|-(7)----------------------|--7---------------------|
|--8---------|--8---------|--5-----------------------|-(5)--------------------|
|------------|------------|--------------------------|------------------------|
|------------|------------|--------------------------|------------------------|


  Dm               N.C.                 Dm                N.C.
  Gtr I
   E E E  E H      +W                    Q.    Q.    Q     +W
|----------------|--------------------|-----------------|---------------------|
|----------------|--------------------|-----------------|---------------------|
|-----------7----|-(7)----------------|-----------------|---------------------|
|------7-10------|--------------------|-------10--------|---------------------|
|--7-8-----------|--------------------|--8----------12--|-(12)----------------|
|----------------|--------------------|-----------------|---------------------|
|
| Gtr II
|  W                E   E  E  E  H       W                  E   E  E  E  H
|----------------|--------20-20-------|-----------------|---------20-20-------|
|----------------|--------------20----|-----------------|---------------20----|
|-10-------------|-19--19-------------|-10--------------|--19--19-------------|
|-12-------------|--------------------|-12--------------|---------------------|
|----------------|--------------------|-----------------|---------------------|
|----------------|--------------------|-----------------|---------------------|


  Bb               N.C.
  Q.    Q.    Q     +W
|----------------|---------------------|
|------10--------|---------------------|
|------------10--|-(10)----------------|
|-8--------------|---------------------|
|----------------|---------------------|
|----------------|---------------------|
|
| W                  Q.     Q.     Q
|----------------|---------------------|
|----------------|--------[10]---------|
|-7--------------|---------------[10]--|
|-8--------------|--[8]----------------|
|----------------|---------------------|
|----------------|---------------------|


  G5
   Q.    Q.    Q     +E   E   E   E    E  E  E  E
|-----------------|-------------------------------|
|-----------------|-------------------------------|
|-------------14--|-(14)-10--10--10----9--9-------|
|-------12--------|-------------------------12----|
|-10--------------|-------------------------------|
|-----------------|-----------------------------0-|
|
|  W                  E   Q       E    Q     Q
|-----------------|-------------------------[5]---|
|-----------------|------[6]----------[5]---------|
|--7--------------|-------------([5])-------------|
|--5--------------|-------------------------------|
|-----------------|-------------------------------|
|-----------------|-------------------------------|


  Dm                N.C.                 Dm              N.C.
   E E  E Q.   Q    +W                    Q.   Q.   Q    +W
|-----------------|--------------------|---------------|--------------------|
|-----------------|--------------------|---------------|--------------------|
|---------7-------|--------------------|-------7-------|--------------------|
|------10---------|--------------------|------------7--|-(7)----------------|
|--7-8------------|--------------------|---------------|--------------------|
|--------------0--|-(0)----------------|--3------------|--------------------|
|
|  W                 E   E  E  E  H       W               E   E  E  E  H
|-----------------|--------20-20-------|---------------|--------20-20-------|
|-----------------|--------------20----|---------------|--------------20----|
|-10--------------|-19--19-------------|-10------------|-19--19-------------|
|-12--------------|--------------------|-12------------|--------------------|
|-----------------|--------------------|---------------|--------------------|
|-----------------|--------------------|---------------|--------------------|


  Bb               N.C.
  Q.    Q.    Q     +W
|----------------|---------------------|
|------10--------|---------------------|
|------------10--|-(10)----------------|
|-8--------------|---------------------|
|----------------|---------------------|
|----------------|---------------------|
|
| W                  Q.     Q.     Q
|----------------|---------------------|
|----------------|--------[10]---------|
|-7--------------|---------------[10]--|
|-8--------------|--[8]----------------|
|----------------|---------------------|
|----------------|---------------------|


  G5                        N.C.
   E  E  E  E  E  E  E  E    E  E   E   E    E   E  E   E
|-------------------------|--------------------------------|
|-------------------------|--------------------------------|
|----14----14----14----14-|----14------14-------14-----14\-|
|-12----12----12----12----|-12-----12-------12-----12------|
|-------------------------|--------------------------------|
|-------------------------|--------------------------------|
|
|  W                         E  Q       E    Q      Q
|-------------------------|------------------------[5]-----|
|-------------------------|----[6]----------[5]------------|
|--7----------------------|-----------([5])----------------|
|--5----------------------|--------------------------------|
|-------------------------|--------------------------------|
|-------------------------|--------------------------------|


 Bridge
  Bb5              C5
  Gtr I
                            >
  E   E E  E  E  E  Q      +W
|-----------------------|--------------------|
|------------10-----8---|--(8)---------------|
|----10-7-------10------|--------------------|
|-8-------10------------|--------------------|
|-----------------------|--------------------|
|-----------------------|--------------------|
|
| Gtr II
| H.                Q      +W
|-----------------------|--------------------|
|-----------------------|--------------------|
|-----------------------|--------------------|
|-8----------------10---|-(10)---------------|
|-----------------------|--------------------|
|-----------------------|--------------------|
|
| Gtr III
| PM------------------------------------------
| E   E E  E  E  E  E E     E  E E E E E E E
|-----------------------|--------------------|
|-----------------------|--------------------|
|-----------------------|--------------------|
|-3---3-3--3--3--3--5-5-|---5--5-5-5-5-5-5-5-|
|-1---1-1--1--1--1--3-3-|---3--3-3-3-3-3-3-3-|
|-----------------------|--------------------|


  D5                   F5
  +W                    W
|--------------------|--8----------------|
|-(8)----------------|-------------------|
|--------------------|-------------------|
|--------------------|-------------------|
|--------------------|-------------------|
|--------------------|-------------------|
|
|  H         H          H        H
|--------------------|-------------------|
|--------------------|-------------------|
|--------------------|-------------------|
|-12--------15-------|-14-------10-------|
|--------------------|-------------------|
|--------------------|-------------------|
|
|--------------------------------------|
|  E  E E E  E E E E    E E E E  E E E E
|--------------------|-------------------|
|--------------------|-------------------|
|--------------------|-------------------|
|--7--7-7-7--7-7-7-7-|-------------------|
|--5--5-5-5--5-5-5-5-|--3-3-3-3--3-3-3-3-|
|--------------------|--3-3-3-3--3-3-3-3-|


  Bb5              C5
                            >
  E   E E  E  E  E  Q      +W
|-----------------------|--------------------|
|------------10-----8---|--(8)---------------|
|----10-7-------10------|--------------------|
|-8-------10------------|--------------------|
|-----------------------|--------------------|
|-----------------------|--------------------|
|
| H.                Q      +W
|-----------------------|--------------------|
|-----------------------|--------------------|
|-----------------------|--------------------|
|-8----------------14---|-(14)---------------|
|-----------------------|--------------------|
|-----------------------|--------------------|
|
| PM------------------------------------------
| E   E E  E  E  E  E E     E  E E E E E E E
|-----------------------|--------------------|
|-----------------------|--------------------|
|-----------------------|--------------------|
|-3---3-3--3--3--3--5-5-|---5--5-5-5-5-5-5-5-|
|-1---1-1--1--1--1--3-3-|---3--3-3-3-3-3-3-3-|
|-----------------------|--------------------|


  D5                   F5
  +W                    W
|--------------------|--8----------------|
|-(8)----------------|-------------------|
|--------------------|-------------------|
|--------------------|-------------------|
|--------------------|-------------------|
|--------------------|-------------------|
|
|  H         H          H        H
|--------------------|-------------------|
|--------------------|-------------------|
|-----------14-------|-12----------------|
|-15-----------------|----------14-------|
|--------------------|-------------------|
|--------------------|-------------------|
|
|--------------------------------------|
|  E  E E E  E E E E    E E E E  E E E E
|--------------------|-------------------|
|--------------------|-------------------|
|--------------------|-------------------|
|--7--7-7-7--7-7-7-7-|-------------------|
|--5--5-5-5--5-5-5-5-|--3-3-3-3--3-3-3-3-|
|--------------------|--3-3-3-3--3-3-3-3-|


  Bb5
   E  E E  E  q    q       E   E E  E  E  E  E  E
|----------------------|--------------------------|
|-10----8-10-----------|--10-----8-10-11----10----|
|----10------10---10---|------10---------10----10-|
|------------12---12---|--------------------------|
|----------------------|--------------------------|
|----------------------|--------------------------|
|
|  W                      +W
|----------------------|--------------------------|
|----------------------|--------------------------|
|----------------------|--------------------------|
|-12-------------------|-(12)---------------------|
|----------------------|--------------------------|
|----------------------|--------------------------|
|
|  PM---------------------------------|
|  E  E E  E  E E  E E     E   E E  E  E  E  E  E
|----------------------|--------------------------|
|----------------------|--------------------------|
|----------------------|------------------3--3--3-|
|--3--3-3--3--3-3--3-3-|---3---3-3--3--3--3--3--3-|
|--1--1-1--1--1-1--1-1-|---1---1-1--1--1--1--1--1-|
|----------------------|--------------------------|


  C5
   q   q   q   q     W
|-----------------|-----------------|
|-----------------|-----------------|
|-10--10--10--10--|-----------------|
|-12--12--12--12--|-----------------|
|-----------------|-----------------|
|-----------------|-----------------|
|
|  W                 H      H
|-----------------|-----------------|
|-----------------|-----------------|
|-----------------|-----------------|
|-14--------------|-15-----17-------|
|-----------------|-----------------|
|-----------------|-----------------|
|
|  W                +H      E E E E
|-----------------|-----------------|
|-----------------|-----------------|
|--5--------------|-(5)-------5-5-5-|
|--5--------------|-(5)-------5-5-5-|
|--3--------------|-(3)-------3-3-3-|
|-----------------|-----------------|


 Pre-Chorus
  D5
  Gtr III
   E  E  E  H        +E     +W
|-13-12------------------|------------------|
|-------13---------------|------------------|
|----------14-------(14)-|-(14)-------------|
|------------------------|------------------|
|------------------------|------------------|
|------------------------|------------------|
|
| Gtr II
|  E  E  E  E E Q.           E  E Q.   Q.
|------------------------|------------------|
|------------------------|------------------|
|--7--7-----7-7----------|------7------7----|
|--7--7-----7-7----------|------7------7----|
|--5--5-----5-5----------|------5------5----|
|------------------------|------------------|


   Q.      Q.       Q     +W
|----------------------|------------------|
|---------13-----------|------------------|
|------------------14--|-(14)-------------|
|-15-------------------|------------------|
|----------------------|------------------|
|----------------------|------------------|
|
|  E  E E  E  E Q.         E  E E Q.   Q
|----------------------|------------------|
|----------------------|------------------|
|--7--7----7--7--------|---7----7------7--|
|--7--7----7--7--------|---7----7------7--|
|--5--5----5--5--------|---5----5------5--|
|----------------------|------------------|


  F5
   E  E  E  H        +E     +W
|-13-12------------------|------------------|
|-------13---------------|------------------|
|----------14-------(14)-|-(14)-------------|
|------------------------|------------------|
|------------------------|------------------|
|------------------------|------------------|
|
|  E  E  E  E E Q.           E  E Q.   Q.
|------------------------|------------------|
|------------------------|------------------|
|------------------------|------------------|
|--3--3-----3-3----------|------3------3----|
|--3--3-----3-3----------|------3------3----|
|--3--3-----3-3----------|------3------3----|


                                            N.C.
   Q.      Q.       Q     +H         Q    Q
|----------------------|----------------------|
|---------13-----------|------------13--------|
|------------------14--|-(14)------------14---|
|-15-------------------|----------------------|
|----------------------|----------------------|
|----------------------|----------------------|
|
|  E  E E  E  E Q.         E  E Q.     Q    E
|----------------------|----------------------|
|----------------------|----------------------|
|----------------------|----------------------|
|--3--3----3--3--------|------3--------3----0-|
|--3--3----3--3--------|------3--------3------|
|--3--3----3--3--------|------3--------3------|


                           Bb5
  Gtr III
   E  E  E  Q    E  E  E    W
|-13-12---------12-------|------------------|
|-------13-11------13-11-|------------------|
|------------------------|------------------|
|------------------------|------------------|
|------------------------|------------------|
|------------------------|------------------|
|
| Gtr II
|                PM---|
|  E  E  E  E E  E  E  E    E E  Q   Q   Q
|------------------------|------------------|
|------------------------|------------------|
|------------------------|--3----3-------3--|
|--3---------------------|--3----3-------3--|
|-----0--3--5-1--1--1--1-|--1----1-------1--|
|------------------------|------------------|
|
| Gtr I
|  W                        q    q   q   q
|------------------------|------------------|
|------------------------|------------------|
|------------------------|-10---10--10--10--|
|------------------------|-12---12--12--12--|
|------------------------|------------------|
|------------------------|------------------|


                                          C5
   Q.       Q.        Q     +W
|------------------------|-----------------------|
|-10-------13------------|-----------------------|
|--------------------12--|-(12)------------------|
|------------------------|-----------------------|
|------------------------|-----------------------|
|------------------------|-----------------------|
|
|  E  E  E  E   E Q.         E  E  Q.     Q.
|------------------------|-----------------------|
|------------------------|-----------------------|
|--3--3-----3---3--------|------3---------5------|
|--3--3-----3---3--------|------3---------5------|
|--1--1-----1---1--------|------1---------3------|
|------------------------|-----------------------|
|
|  q     q      q     q      q     q    q     q
|------------------------|-----------------------|
|------------------------|-----------------------|
|-10----10-----10----10--|--10----10---10----10--|
|-12----12-----12----12--|--12----12---12----12--|
|------------------------|-----------------------|
|------------------------|-----------------------|


  D5
   E  E  E  H           +E     +W
|-13-12---------------------|----------------------|
|-------13------------------|----------------------|
|----------14----------(14)-|-(14)-----------------|
|---------------------------|----------------------|
|---------------------------|----------------------|
|---------------------------|----------------------|
|
|  E  E  E  E  E Q.             E  E  E Q.      Q
|---------------------------|----------------------|
|---------------------------|----------------------|
|--7--7-----7--7------------|---7-----7---------7--|
|--7--7-----7--7------------|---7-----7---------7--|
|--5--5-----5--5------------|---5-----5---------5--|
|---------------------------|----------------------|
|
|  q     q     q     q          q     q     q   q
|---------------------------|----------------------|
|---------------------------|----------------------|
|-10----10----10----10------|--10----10----10--10--|
|-12----12----12----12------|--12----12----12--12--|
|---------------------------|----------------------|
|---------------------------|----------------------|


   Q.       Q.        Q     +H          Q     Q
|------------------------|-----------------------|
|----------13------------|-------------13--------|
|--------------------14--|-(14)--------------14--|
|-15---------------------|-----------------------|
|------------------------|-----------------------|
|------------------------|-----------------------|
|
|  E  E  E  E   E Q.         E  E  Q.     Q.
|------------------------|-----------------------|
|------------------------|-----------------------|
|--7--7-----7---7--------|------7---------7------|
|--7--7-----7---7--------|------7---------7------|
|--5--5-----5---5--------|------5---------5------|
|------------------------|-----------------------|
|
|  q     q      q     q      q     q    q     q
|------------------------|-----------------------|
|------------------------|-----------------------|
|-10----10-----10----10--|--10----10---10----10--|
|-12----12-----12----12--|--12----12---12----12--|
|------------------------|-----------------------|
|------------------------|-----------------------|


  F5
                                >
   E  E  E  H           +E     +W
|-13-12---------------------|---------------------------|
|-------13------------------|---------------------------|
|----------14----------(14)-|-(14)----------------------|
|---------------------------|---------------------------|
|---------------------------|---------------------------|
|---------------------------|---------------------------|
|
|  E  E  E  E  E  E  E   E      E   E  E  E  E  E  E  E
|---------------------------|---------------------------|
|---------------------------|---------------------------|
|---------------------------|---------------------------|
|--3--3-----3--3--3--3---3--|---3---3--3--3--3--3--3--3-|
|--3--3-----3--3--3--3---3--|---3---3--3--3--3--3--3--3-|
|--3--3-----3--3--3--3---3--|---3---3--3--3--3--3--3--3-|
|
|  E  E  E  E  E  E  E   E      E   E  E  E  E  E  E  E
|---------------------------|---------------------------|
|-10-10-10-10-10-10-10--10--|--10--10-10-10-10-10-10-10-|
|-10-10-10-10-10-10-10--10--|--10--10-10-10-10-10-10-10-|
|-12-12-12-12-12-12-12--12--|--12--12-12-12-12-12-12-12-|
|---------------------------|---------------------------|
|---------------------------|---------------------------|


   +W                          +W
|---------------------------|---------------------------|
|---------------------------|---------------------------|
|-(14)----------------------|-(14)----------------------|
|---------------------------|---------------------------|
|---------------------------|---------------------------|
|---------------------------|---------------------------|
|
|   E   E  E  E  E  E  E  E     E   E  E  E  E  E  E  E
|---------------------------|---------------------------|
|---------------------------|---------------------------|
|---------------------------|---------------------------|
|---3---3-----3--3--3--3--3-|---3---3--3--3--3--3--3--3-|
|---3---3-----3--3--3--3--3-|---3---3--3--3--3--3--3--3-|
|---3---3-----3--3--3--3--3-|---3---3--3--3--3--3--3--3-|
|
|   E   E  E  E  E  E  E  E     E   E  E  E  E  E  E  E
|---------------------------|---------------------------|
|--10--10-10-10-10-10-10-10-|--10--10-10-10-10-10-10-10-|
|--10--10-10-10-10-10-10-10-|--10--10-10-10-10-10-10-10-|
|--12--12-12-12-12-12-12-12-|--12--12-12-12-12-12-12-12-|
|---------------------------|---------------------------|
|---------------------------|---------------------------|


 Chorus
  Bb5       C                         D5                F5
  Gtr I
   Q   H     Q     +E  E Q  E E E E    Q  Q   E E E E    Q  Q   E E E E
|---------------|-------------------|-----------------|-----------------|
|---------------|-------------------|-----------------|-----------------|
|--3---3-----5--|--(5)-5-5--5-5-5-5-|--7--7---7-7-7-7-|-----------------|
|--3---3-----2--|--(2)-2-2--2-2-2-2-|--7--7---7-7-7-7-|--3--3---3-3-3-3-|
|--1---1-----3--|--(3)-3-3--3-3-3-3-|--5--5---5-5-5-5-|--3--3---3-3-3-3-|
|---------------|-------------------|-----------------|--3--3---3-3-3-3-|
|
| Gtr II
|  H.        Q     +W                  H      H          H      H
|---------------|-------------------|--------13-------|-12--------------|
|-11--------13--|-(13)--------------|-15--------------|--------13-------|
|---------------|-------------------|-----------------|-----------------|
|---------------|-------------------|-----------------|-----------------|
|---------------|-------------------|-----------------|-----------------|
|---------------|-------------------|-----------------|-----------------|


  Bb5       C                         D5                F5
   Q   H     Q     +E  E Q  E E E E    Q  Q   E E E E    E H..
|---------------|-------------------|-----------------|-----------|
|---------------|-------------------|-----------------|-----------|
|--3---3-----5--|--(5)-5-5--5-5-5-5-|--7--7---7-7-7-7-|-----------|
|--3---3-----2--|--(2)-2-2--2-2-2-2-|--7--7---7-7-7-7-|--3--------|
|--1---1-----3--|--(3)-3-3--3-3-3-3-|--5--5---5-5-5-5-|--3--------|
|---------------|-------------------|-----------------|--3--------|
|
|  H.        Q     +W                  H      H          E H..
|---------------|-------------------|--------15-------|-13--------|
|-11--------13--|-(13)--------------|-15--------------|-----------|
|---------------|-------------------|-----------------|-----------|
|---------------|-------------------|-----------------|-----------|
|---------------|-------------------|-----------------|-----------|
|---------------|-------------------|-----------------|-----------|


  D5
  Gtr I
   W                         E   E  E  E  E  E  E  E
|-------------------------|-10--10-------------------|
|-------------------------|--------13-13-10-10-------|
|-------------------------|--------------------12-12-|
|-------------------------|--------------------------|
|-------------------------|--------------------------|
|-------------------------|--------------------------|
|
| Gtr II
|  E  E  E  E  E  E  E  E    E   E  E  E  E  E  E  E
|-10-10-------------------|--------------------------|
|-------13-13-10-10-------|--------------------------|
|-------------------12-12-|-10--10--9--9-------------|
|-------------------------|--------------12-12-10-10-|
|-------------------------|--------------------------|
|-------------------------|--------------------------|
|
| Gtr III
|  Q     Q     E  E  Q      +E   E  Q     E  E  Q
|-------------------------|--------------------------|
|-------------------------|--------------------------|
|--7-----7-----7--7--7----|-(7)--7--7-----7--7--7----|
|--7-----7-----7--7--7----|-(7)--7--7-----7--7--7----|
|--5-----5-----5--5--5----|-(5)--5--5-----5--5--5----|
|-------------------------|--------------------------|


  F5
   Q   E  E  E  E  E  E    Q     E  E  E  E  E  E
|-----------------------|-------------------------|
|-----------------------|-------------------------|
|-10--10-10-10-10-10s12-|-12----12-12-12-12-12-12-|
|--x---x--x--x--x--x--x-|--x-----x--x--x--x--x--x-|
|--8---8--8--8--8--8s10-|-10----10-10-10-10-10-10-|
|-----------------------|-------------------------|
|
|  Q   Q     E  E  Q      +E  E  Q     E  E  E  E
|-----------------------|-------------------------|
|-----------------------|-------------------------|
|-----------------------|-------------------------|
|--3---3-----3--3--3----|-(3)-3--3-----3--3--3--3-|
|--3---3-----3--3--3----|-(3)-3--3-----3--3--3--3-|
|--3---3-----3--3--3----|-(3)-3--3-----3--3--3--3-|
|
|  Q   Q     E  E  Q      +E  E  Q     E  E  E  E
|-----------------------|-------------------------|
|-----------------------|-------------------------|
|-----------------------|-------------------------|
|--3---3-----3--3--3----|-(3)-3--3-----3--3--3--3-|
|--3---3-----3--3--3----|-(3)-3--3-----3--3--3--3-|
|--3---3-----3--3--3----|-(3)-3--3-----3--3--3--3-|


  Bb5
   W                         E   E  E  E  E  E  E  E
|-------------------------|-10--10-------------------|
|-------------------------|--------13-13-10-10-------|
|-------------------------|--------------------12-12-|
|-------------------------|--------------------------|
|-------------------------|--------------------------|
|-------------------------|--------------------------|
|
|  E  E  E  E  E  E  E  E    E   E  E  E  E  E  E  E
|-10-10-------------------|--------------------------|
|-------13-13-10-10-------|--------------------------|
|-------------------12-12-|-10--10--9--9-------------|
|-------------------------|--------------12-12-10-10-|
|-------------------------|--------------------------|
|-------------------------|--------------------------|
|
|  Q     Q     E  E  Q      +E   E  Q     E  E  Q
|-------------------------|--------------------------|
|-------------------------|--------------------------|
|-------------------------|--------------------------|
|--8-----8-----8--8--8----|-(8)--8--8-----8--8--8----|
|--8-----8-----8--8--8----|-(8)--8--8-----8--8--8----|
|--8-----8-----8--8--8----|-(8)--8--8-----8--8--8----|


  G5
   Q   E  E  E  E  E  E    Q     E  E  E  E  E  E
|-----------------------|-------------------------|
|-----------------------|-------------------------|
|-10--10-10-10-10-10s12-|-12----12-12-12-12-12-12-|
|--x---x--x--x--x--x--x-|--x-----x--x--x--x--x--x-|
|--8---8--8--8--8--8s10-|-10----10-10-10-10-10-10-|
|-----------------------|-------------------------|
|
|  Q   Q     E  E  Q      +E  E  Q     E  E  E  E
|-----------------------|-------------------------|
|-----------------------|-------------------------|
|-----------------------|-------------------------|
|--5---5-----5--5--5----|-(5)-5--5-----5--5--5--5-|
|--5---5-----5--5--5----|-(5)-5--5-----5--5--5--5-|
|--5---5-----5--5--5----|-(5)-5--5-----5--5--5--5-|
|
|  Q   Q     E  E  Q      +E  E  Q     E  E  E  E
|-----------------------|-------------------------|
|-----------------------|-------------------------|
|-----------------------|-------------------------|
|--5---5-----5--5--5----|-(5)-5--5-----5--5--5--5-|
|--5---5-----5--5--5----|-(5)-5--5-----5--5--5--5-|
|--5---5-----5--5--5----|-(5)-5--5-----5--5--5--5-|


 Bridge
  D5
  Gtrs I, II, III
  E E E E H      E E Q.   Q.     E E E E H      E E Q.   Q.
|--------------|---------------|--------------|---------------|
|--------------|---------------|--------------|---------------|
|-7-7-7-7------|---7------7----|-7-7-7-7------|---7------7----|
|-7-7-7-7------|---7------7----|-7-7-7-7------|---7------7----|
|-5-5-5-5------|---5------5----|-5-5-5-5------|---5------5----|
|--------------|---------------|--------------|---------------|


  Gtrs I, III
  H    E E Q    E E Q.   Q.     E E E E H      E E E Q.     Q
|-------------|---------------|--------------|------------------|
|-------------|---------------|--------------|------------------|
|------7-7----|---7------7----|-7-7-7-7------|-7---7-------/7\--|
|-0----7-7----|---7------7----|-7-7-7-7------|-7---7-------/7\--|
|-0----5-5----|---5------5----|-5-5-5-5------|-5---5-------/5\--|
|-0-----------|---------------|--------------|------------------|
|
| Gtr II
| H    E E Q    E E Q.   Q.     E E E E H      E E E Q.     Q
|-------------|---------------|--------------|------------------|
|-------------|---------------|--------------|------------------|
|------7-7----|---7------7----|-7-7-7-7------|-7---7------/10\--|
|-0----7-7----|---7------7----|-7-7-7-7------|-7---7------/10\--|
|-0----5-5----|---5------5----|-5-5-5-5------|-5---5-------/8\--|
|-0-----------|---------------|--------------|------------------|


  Bb5
  Gtr I
   E  E  E  E  E  E  E  E    E  E  E   E  E  E   E  E
|-------------20-20-------|---------------------------|
|-------18-18-------17-17-|--------------18-18--17-17-|
|-19-19-------------------|-19-19-17--17--------------|
|-------------------------|---------------------------|
|-------------------------|---------------------------|
|-------------------------|---------------------------|
|
| Gtr II
|  E  E  E  E  E  E  E  E    E  E  E   E  E  E   E  E
|----17----17----17----15-|----15-----15----15-----15-|
|-18----18----18----17----|-17----17-----17-----17----|
|-------------------------|---------------------------|
|-------------------------|---------------------------|
|-------------------------|---------------------------|
|-------------------------|---------------------------|
|
| Gtr III
|  E  E  E  E  H             E  E  Q.        Q.
|-------------------------|---------------------------|
|-------------------------|---------------------------|
|--3--3--3--3-------------|-----3------------3--------|
|--3--3--3--3-------------|-----3------------3--------|
|--1--1--1--1-------------|-----1------------1--------|
|-------------------------|---------------------------|


                                            C5
   E  E  E  E  E  E  E  E    E  E  E   E  E  E   E  E
|-------------20-20-------|---------------------------|
|-------18-18-------17-17-|--------------18-18--17-17-|
|-19-19-------------------|-19-19-17--17--------------|
|-------------------------|---------------------------|
|-------------------------|---------------------------|
|-------------------------|---------------------------|
|
|  E  E  E  E  E  E  E  E    E  E  E   E  E  E   E  E
|----17----17----17----15-|----15-----15----15-----15-|
|-18----18----18----17----|-17----17-----17-----17----|
|-------------------------|---------------------------|
|-------------------------|---------------------------|
|-------------------------|---------------------------|
|-------------------------|---------------------------|
|
|  E  E  E  E  H             E  E  Q.        Q.
|-------------------------|---------------------------|
|-------------------------|---------------------------|
|--3--3--3--3-------------|-----3------------5--------|
|--3--3--3--3-------------|-----3------------5--------|
|--1--1--1--1-------------|-----1------------3--------|
|-------------------------|---------------------------|


  D5
   E  E  E  E  E  E  E  E    E  E  E   E  E  E   E  E
|-------------20-20-------|---------------------------|
|-------18-18-------17-17-|--------------18-18--17-17-|
|-19-19-------------------|-19-19-17--17--------------|
|-------------------------|---------------------------|
|-------------------------|---------------------------|
|-------------------------|---------------------------|
|
|  E  E  E  E  E  E  E  E    E  E  E   E  E  E   E  E
|----17----17----17----15-|----15-----15----15-----15-|
|-18----18----18----17----|-17----17-----17-----17----|
|-------------------------|---------------------------|
|-------------------------|---------------------------|
|-------------------------|---------------------------|
|-------------------------|---------------------------|
|
|  H           E  E  Q       E  E  Q.        Q.
|-------------------------|---------------------------|
|-------------------------|---------------------------|
|-------------------------|---------------------------|
|--0-----------0--0-------|-----0------------0--------|
|--0-----------0--0-------|-----0------------0--------|
|--0-----------0--0-------|-----0------------0--------|


   E  E  E  E  E  E  E  E    E  E  E   E  E  E  E  E
|-------------20-20-------|--------------------------|
|-------18-18-------17-17-|--------------18-18-17-17-|
|-19-19-------------------|-19-19-17--17-------------|
|-------------------------|--------------------------|
|-------------------------|--------------------------|
|-------------------------|--------------------------|
|
|  E  E  E  E  E  E  E  E    E  E  E   E  E  E  E  E
|----17----17----17----15-|----15-----15----15----15-|
|-18----18----18----17----|-17----17-----17----17----|
|-------------------------|--------------------------|
|-------------------------|--------------------------|
|-------------------------|--------------------------|
|-------------------------|--------------------------|
|
|  E  E  E  E  H             E  E  Q.        E  E  E
|-------------------------|--------------------------|
|-------------------------|--------------------------|
|-------------------------|--------------------------|
|--0--0--0--0-------------|-----0------------0--0--0-|
|--0--0--0--0-------------|-----0------------0--0--0-|
|--0--0--0--0-------------|-----0------------0--0--0-|


   W           +H      +E   E  E  E
|-----------|------------------------|
|-15--------|-(15)----(15)-15-15-15\-|
|-----------|------------------------|
|-----------|------------------------|
|-----------|------------------------|
|-----------|------------------------|
|
|  W           +H      +E   E  E  E
|-----------|------------------------|
|-----------|------------------------|
|-----------|------------------------|
|-12--------|-(12)----(12)-12-12-12\-|
|-----------|------------------------|
|-----------|------------------------|
|
|                           PM---|
|  W           +H      +E   E  E  E
|-----------|------------------------|
|-----------|------------------------|
|-----------|------------------------|
|--0--------|--(0)-----(0)--7--7--7--|
|--0--------|--(0)-----(0)--5--5--5--|
|--0--------|--(0)-----(0)-----------|


   Interlude
    N.C.
   6/8           5/8         6/8
    Gtr II
    PM------------------------------------------------|
    E E E E E E   E E E E E   E E E E E E   E E E E E E
||--------------|-----------|-------------|--------------||
||o-------------|-----------|-------------|-------------o||
||------------2-|-3---2---0-|-----------2-|-3---2---0----||
||------3---5---|---0---0---|-----3---5---|---0---0---0--||
||o-5-3---5-----|-----------|-5-3---5-----|-------------o||
||--------------|-----------|-------------|--------------||


  Bb5
               5/8         6/8
  Gtr I
  PM----------------------------------|
  E E E E E E   E E E E E   E E E E E E   E E E E E E
|-------------|-----------|-------------|-------------|
|-------------|-----------|-------------|-------------|
|-------------|-----------|-------------|-3-3-3-3-3---|
|-3-3-3-3-3-3-|-3-3-3-3-3-|-3-3-3-3-3-3-|-3-3-3-3-3---|
|-1-1-1-1-1-1-|-1-1-1-1-1-|-1-1-1-1-1-1-|-1-1-1-1-1---|
|-------------|-----------|-------------|-------------|
|
| Gtr II
| PM------------------------------------------------|
| E E E E E E   E E E E E   E E E E E E   E E E E E E
|-------------|-----------|-------------|-------------|
|-------------|-----------|-------------|-------------|
|-----------2-|-3---2---0-|-----------2-|-3---2---0---|
|-----3---5---|---0---0---|-----3---5---|---0---0-----|
|-5-3---5-----|-----------|-5-3---5-----|-------------|
|-------------|-----------|-------------|-------------|


  N.C.
                  5/8             6/8
  Gtr I
   Q    Q    Q      Q   Q     E      Q    Q   Q       Q    Q   Q
|----------------|---------------|----------------|----------------|
|----------------|---------------|----------------|----------------|
|--7----7----7---|--7---7-----7--|---7----7---7---|---7----7---7---|
|--x----x----x---|--x---x-----x--|---x----x---x---|---x----x---x---|
|--5----5----5---|--5---5-----5--|---5----5---5---|---5----5---5---|
|----------------|---------------|----------------|----------------|
|
| Gtr II
|  E E  E E  E E    E E E E   E      E  E E E E E     E  E E E E E
|----------------|---------------|----------------|----------------|
|----------------|---------------|----------------|----------------|
|--------------2-|--3---2-----0--|--------------2-|---3----2---0---|
|-------3----5---|----0---0------|--------3---5---|------0---0---0-|
|--5-3----5------|---------------|---5--3---5-----|----------------|
|----------------|---------------|----------------|----------------|
|
| Gtr III
|  Q    Q    Q      H        +E     +H.              +H.
|-13---12---10---|---------------|----------------|----------------|
|----------------|-10-------(10)-|-(10)-----------|-(10)-----------|
|----------------|---------------|----------------|----------------|
|----------------|---------------|----------------|----------------|
|----------------|---------------|----------------|----------------|
|----------------|---------------|----------------|----------------|


                  5/8             6/8
   Q    Q    Q      Q   Q     E      Q    Q   Q       Q    Q   Q
|----------------|---------------|----------------|----------------|
|----------------|---------------|----------------|----------------|
|--5----5----5---|--5---5-----5--|---5----5---5---|---5----5---5---|
|--x----x----x---|--x---x-----x--|---x----x---x---|---x----x---x---|
|--3----3----3---|--3---3-----3--|---3----3---3---|---3----3---3---|
|----------------|---------------|----------------|----------------|
|
|  E E  E E  E E    E E E E   E      E  E E E E E     E  E E E E E
|----------------|---------------|----------------|----------------|
|----------------|---------------|----------------|----------------|
|--------------2-|--3---2-----0--|--------------2-|---3----2---0---|
|-------3----5---|----0---0------|--------3---5---|------0---0---0-|
|--5-3----5------|---------------|---5--3---5-----|----------------|
|----------------|---------------|----------------|----------------|
|
|  Q    Q    Q      H        +E     +H.              +H.
|-13---12---10---|---------------|----------------|----------------|
|----------------|-10-------(10)-|-(10)-----------|-(10)-----------|
|----------------|---------------|----------------|----------------|
|----------------|---------------|----------------|----------------|
|----------------|---------------|----------------|----------------|
|----------------|---------------|----------------|----------------|


                  5/8             6/8
   Q    Q    Q      Q   Q     E      Q    Q   Q       Q    Q   Q
|----------------|---------------|----------------|----------------|
|----------------|---------------|----------------|----------------|
|--3----3----3---|--3---3-----3--|---3----3---3---|---3----3---3---|
|--x----x----x---|--x---x-----x--|---x----x---x---|---x----x---x---|
|--1----1----1---|--1---1-----1--|---1----1---1---|---1----1---1---|
|----------------|---------------|----------------|----------------|
|
|  E E  E E  E E    E E E E   E      E  E E E E E     E  E E E E E
|----------------|---------------|----------------|----------------|
|----------------|---------------|----------------|----------------|
|--------------2-|--3---2-----0--|--------------2-|---3----2---0---|
|-------3----5---|----0---0------|--------3---5---|------0---0---0-|
|--5-3----5------|---------------|---5--3---5-----|----------------|
|----------------|---------------|----------------|----------------|
|
|  Q    Q    Q      H        +E     +H.              +H.
|-13---12---10---|---------------|----------------|----------------|
|----------------|-10-------(10)-|-(10)-----------|-(10)-----------|
|----------------|---------------|----------------|----------------|
|----------------|---------------|----------------|----------------|
|----------------|---------------|----------------|----------------|
|----------------|---------------|----------------|----------------|


  D5
                  5/8             6/8
   Q    Q    Q      Q   Q     E      Q    Q   Q       Q    Q   Q
|----------------|---------------|----------------|----------------|
|----------------|---------------|----------------|----------------|
|----------------|---------------|----------------|----------------|
|--0----0----0---|--0---0-----0--|---0----0---0---|---0----0---0---|
|--0----0----0---|--0---0-----0--|---0----0---0---|---0----0---0---|
|--0----0----0---|--0---0-----0--|---0----0---0---|---0----0---0---|
|
|  E E  E E  E E    E E E E   E      E  E E E E E     E  E E E E E
|----------------|---------------|----------------|----------------|
|----------------|---------------|----------------|----------------|
|--------------2-|--3---2-----0--|--------------2-|---3----2---0---|
|-------3----5---|----0---0------|--------3---5---|------0---0---0-|
|--5-3----5------|---------------|---5--3---5-----|----------------|
|----------------|---------------|----------------|----------------|
|
|  Q    Q    Q      H        +E     +H.              +H.
|-13---12---10---|---------------|----------------|----------------|
|----------------|-10-------(10)-|-(10)-----------|-(10)-----------|
|----------------|---------------|----------------|----------------|
|----------------|---------------|----------------|----------------|
|----------------|---------------|----------------|----------------|
|----------------|---------------|----------------|----------------|


  F5
                  5/8             6/8
   Q    Q    Q      Q   Q     E      Q    Q   Q       Q    Q   Q
|----------------|---------------|----------------|----------------|
|----------------|---------------|----------------|----------------|
|--5----5----5---|--5---5-----5--|---5----5---5---|---5----5---5---|
|--3----3----3---|--3---3-----3--|---3----3---3---|---3----3---3---|
|--3----3----3---|--3---3-----3--|---3----3---3---|---3----3---3---|
|--3----3----3---|--3---3-----3--|---3----3---3---|---3----3---3---|
|
|  E E  E E  E E    E E E E   E      E  E E E E E     E  E E E E E
|----------------|---------------|----------------|----------------|
|----------------|---------------|----------------|----------------|
|--------------2-|--3---2-----0--|--------------2-|---3----2---0---|
|-------3----5---|----0---0------|--------3---5---|------0---0---0-|
|--5-3----5------|---------------|---5--3---5-----|----------------|
|----------------|---------------|----------------|----------------|
|
|  Q    Q    Q      H        +E     +H.              +H.
|-15---13---12---|---------------|----------------|----------------|
|----------------|-13-------(13)-|-(13)-----------|-(13)-----------|
|----------------|---------------|----------------|----------------|
|----------------|---------------|----------------|----------------|
|----------------|---------------|----------------|----------------|
|----------------|---------------|----------------|----------------|


  Bb5
                  5/8             6/8
   Q    Q    Q      Q   Q     E      Q    Q   Q       Q   Q  Q
|----------------|---------------|----------------|-------------|
|----------------|---------------|----------------|-------------|
|--3----3----3---|--3---3-----3--|---3----3---3---|---3---3--3--|
|--3----3----3---|--3---3-----3--|---3----3---3---|---3---3--3--|
|--1----1----1---|--1---1-----1--|---1----1---1---|---1---1--1--|
|----------------|---------------|----------------|-------------|
|
|  E E  E E  E E    E E E E   E      E  E E E E E     Q   Q  Q
|----------------|---------------|----------------|-------------|
|----------------|---------------|----------------|-------------|
|--------------2-|--3---2-----0--|--------------2-|---3---3--3--|
|-------3----5---|----0---0------|--------3---5---|---3---3--3--|
|--5-3----5------|---------------|---5--3---5-----|---1---1--1--|
|----------------|---------------|----------------|-------------|
|
|  Q    Q    Q      H        +E     +H.              +H.
|-15---13--------|---------------|----------------|-------------|
|-----------13---|-15-------(15)-|-(15)-----------|-(15)--------|
|----------------|---------------|----------------|-------------|
|----------------|---------------|----------------|-------------|
|----------------|---------------|----------------|-------------|
|----------------|---------------|----------------|-------------|


   Breakdown
    N.C.
   4/4
    Gtrs I, II
    PM-------------------------------------
    S S S S E H    E   E E Q.   E S S S S
||-------------------|--------------------|
||o------------------|--------------------|
||-------------------|--------------------|
||-------------------|--------------------|
||o------------------|--------------------|
||--0-0-0-0-0--------|---0------0-0-0-0-0-|


 1.
 -------------------------------------|
  E E E Q.   S E S   E E E Q.   S S S S
|------------------|-----------------------||
|------------------|----------------------o||
|------------------|-----------------------||
|------------------|-----------------------||
|------------------|----------------------o||
|-0-0-0------0-0-0-|-0-0-0------0-0-0-0----||


  2.
  Gtrs I, II
  PM---------------------|
  E E E Q.   S E S   E E E S S E E E E
|------------------|-------------------|
|------------------|-------------------|
|------------------|-------------------|
|------------------|-------3h5p3-------|
|------------------|-------------5-3-5-|
|-0-0-0------0-0-0-|-0-0-0-------------|


  Gtr I
   Q.          Q.    Q      +E   Q.      Q    Q
|-20---------------------|----------------------------|
|-------------17----18---|-(18)-----------------------|
|------------------------|------17------19------------|
|------------------------|-------------------19-------|
|------------------------|----------------------------|
|------------------------|----------------------------|
|
| Gtr II
|  PM--------------------------------------------------
|  S  S S S E  H       E     E   E  Q.     E  S S S S
|------------------------|----------------------------|
|------------------------|----------------------------|
|------------------------|----------------------------|
|------------------------|----------------------------|
|------------------------|----------------------------|
|--0--0-0-0-0------------|-------0---------0--0-0-0-0-|


   W                   +W
|-------------------|-------------------------|
|-------------------|-------------------------|
|-------------------|-------------------------|
|-17----------------|-(17)--------------------|
|-------------------|-------------------------|
|-------------------|-------------------------|
|
|-----------------------------------------|
|  E E E Q.   S E S     E  E E Q.   S S S S
|-------------------|-------------------------|
|-------------------|-------------------------|
|-------------------|-------------------------|
|-------------------|-------------------------|
|-------------------|-------------------------|
|--0-0-0------0-0-0-|---0--0-0------0-0-0-0---|


  Gtr I
   Q.          Q.    Q      +E   Q.      Q    Q
|-20---------------------|----------------------------|
|-------------17----18---|-(18)-----------------------|
|------------------------|------17------19------------|
|------------------------|-------------------19-------|
|------------------------|----------------------------|
|------------------------|----------------------------|
|
| Gtr II
|  PM--------------------------------------------------
|  S  S S S E  H       E     E   E  Q.     E  S S S S
|------------------------|----------------------------|
|------------------------|----------------------------|
|------------------------|----------------------------|
|------------------------|----------------------------|
|------------------------|----------------------------|
|--0--0-0-0-0------------|-------0---------0--0-0-0-0-|
|
| Gtr III
|  W                         W
|------------------------|----------------------------|
|------------------------|----------------------------|
|------------------------|----------------------------|
|------------------------|----------------------------|
|------------------------|----------------------------|
|------------------------|----------------------------|


       D5
   W              +W
|--------------|-----------------------|
|--------------|-----------------------|
|--------------|-----------------------|
|-17-----------|-(17)------------------|
|--------------|-----------------------|
|--------------|-----------------------|
|
|----|
|  E E H.          E  E E E   E E E E
|--------------|-----------------------|
|--------------|-----------------------|
|--------------|-----------------------|
|------0-------|---0--0-0-0---0-0-0-0--|
|------0-------|---0--0-0-0---0-0-0-0--|
|--0-0-0-------|---0--0-0-0---0-0-0-0--|
|
|  W               Q.     S S E E E E
|--------------|-----------------------|
|--------------|-----------------------|
|--------------|-----------------------|
|--------------|----------3h5p3--------|
|--------------|----------------5-3-5--|
|--------------|-----------------------|


   Chorus
    Bb5       C                         D5                F5
    Gtrs I, II
     Q   H     Q     +E  E Q  E E E E    Q  Q   E E E E    Q  Q   E E E E
||----------------|-------------------|-----------------|-------------------||
||o---------------|-------------------|-----------------|------------------o||
||---3---3-----5--|--(5)-5-5--5-5-5-5-|--7--7---7-7-7-7-|-------------------||
||---3---3-----2--|--(2)-2-2--2-2-2-2-|--7--7---7-7-7-7-|--3--3---3-3-3-3---||
||o--1---1-----3--|--(3)-3-3--3-3-3-3-|--5--5---5-5-5-5-|--3--3---3-3-3-3--o||
||----------------|-------------------|-----------------|--3--3---3-3-3-3---||
|
|   Gtr III
|    H.        Q     +W                  H      H          H      H
||----------------|-------------------|--------13-------|-12----------------||
||o-11--------13--|-(13)
Добавлено: 23.03.2012
Другие материалы по этой песне:

Страница создана 19.03.2012
http://primanota.ru/the-receiving-end-of-sirens/the-rival-cycle-chords.htm
Привет, Гость.
Предлагаем пройти революционный курс по гитаре.
Подарок от PrimaNota.Ru, забирай!