PrimaNota.ru - самый крупный в мире бесплатный архив песенных текстов, аккордов, табулатур и нот


The Receiving End Of Sirens - Flee The Factory - текст песни, таба, видео

Регистрация Запомнить меня
Войти через:  Facebook Google Twitter Vk Yandex Mail.ru

The Receiving End Of Sirens - Flee The Factory - текст песни, таба, видео

Печатать
Просмотров: 97
Please note that I am not claiming this tab as my own -I have recovered it from the 
archive of TREOS's fansite "Flee The Factory" which ceased to exist sometime ago. I am sure 
will be of use to many of you.As recorded by The Receiving End Of Sirens
             (From the 2005 Album BETWEEN THE HEART AND THE SYNAPSE)

Words and Music by The Receiving End Of Sirens
Arranged by The Receiving End Of Sirens
Transcribed by Cordarro Collins

Gtr I (C G C F A D) - 'Untitled'
Gtr II (C G C F A D) - 'Untitled'
Gtr III (C G C F A D) - 'Untitled'
Gtr IV (C G C F A D) - 'Untitled'
Gtr V (C G C F A D) - 'Untitled'

 Intro
  Q=171
  N.C.
 4/4
  Gtr I
  Wx8
|--------|
|--------|
|--------|
|--------|
|--------|
|--------|


  Gtr I
   PM-----------------------------------------------
   E  E  E  E  E  E E  E    E  E  E  E  E  E  E  E
|------------------------|-------------------------|
|------------------------|-------------------------|
|------------------------|-------------------------|
|--5--5--5--5--5--5-5--5-|--5--5--5--5--5--5--5--5-|
|------------------------|-------------------------|
|------------------------|-------------------------|
|
| Gtr II
|  PM-----------------------------------------------
|  E  E  E  E  E  E E  E    E  E  E  E  E  E  E  E
|------------------------|-------------------------|
|------------------------|-------------------------|
|--7--7--7--7--7--7-7--7-|--7--7--7--7--7--7--7--7-|
|------------------------|-------------------------|
|------------------------|-------------------------|
|------------------------|-------------------------|
|
| Gtr IV
|  E  E  E  E  E  Q    E    E  E  E  E  E  E  E  E
|-15-15-17----17---------|-18----20----18----17----|
|----------15----15---15-|----15----15----15----15-|
|------------------------|-------------------------|
|------------------------|-------------------------|
|------------------------|-------------------------|
|------------------------|-------------------------|


 ------------------------------------------------|
   E  E  E  E  E  E  E  E    E  E  E  E  E  E  E  E
|-------------------------|--------------------------|
|-------------------------|--------------------------|
|-------------------------|--------------------------|
|--8--8--8--8--8--8--8--8-|--8--8--8--8--8--8--8--8--|
|-------------------------|--------------------------|
|-------------------------|--------------------------|
|
|------------------------------------------------|
|  E  E  E  E  E  E  E  E    E  E  E  E  E  E  E  E
|-------------------------|--------------------------|
|-------------------------|--------------------------|
|-10-10-10-10-10-10-10-10-|-10-10-10-10-10-10-10-10--|
|-------------------------|--------------------------|
|-------------------------|--------------------------|
|-------------------------|--------------------------|
|
|  E  E  E  E  E  E  E  E    E  E  E  E  E  E  E  E
|-17----------------------|-18-17-15-17-15-17-15-17--|
|----18-15-18-15-18-15-18-|--------------------------|
|-------------------------|--------------------------|
|-------------------------|--------------------------|
|-------------------------|--------------------------|
|-------------------------|--------------------------|


   PM--------------------------------|
   E  E  E  E  E  E  E  E    E  E  E  E  E  E  E  E
|-------------------------|--------------------------|
|-------------------------|--------------------------|
|--8--8--8--8--8--8--8--8-|--8--8--8--8--8--8--8--8--|
|-------------------------|--------------------------|
|-------------------------|--------------------------|
|-------------------------|--------------------------|
|
|  PM-----------------------------|
|  E  E  E  E  E  E  E  E    E  E  E  E  E  E  E  E
|-------------------------|--------------------------|
|-11-11-11-11-11-11-11-11-|-11-11-11-11-11-11-11-11\-|
|-------------------------|--------------------------|
|-------------------------|--------------------------|
|-------------------------|--------------------------|
|-------------------------|--------------------------|
|
|  E  E  E  E  E  q     E    E  E  E  E  E  E  E  E
|-15-17-18----17----------|-13-15-17----22-17-15-17--|
|----------16----16----16-|----------15--------------|
|-------------------------|--------------------------|
|-------------------------|--------------------------|
|-------------------------|--------------------------|
|-------------------------|--------------------------|


   E  E  E  E  E  E  E  E    E  E  E  E E  E  E E
|-------------------------|------------------------|
|-------------------------|------------------------|
|--7--7--7--7--7--7--7--7-|--5--5--5--5-5--3--5-3--|
|-------------------------|------------------------|
|-------------------------|------------------------|
|-------------------------|------------------------|
|
|  E  E  E  E  E  E  E  E    E  E  E  E E  E  Q
|-------------------------|------------------------|
|-------------------------|------------------------|
|-----------------0--5--0-|------------------------|
|-----------0--3----------|--7--5-------7-----8----|
|-----0--1----------------|--------8--5----5-------|
|-------------------------|------------------------|
|
|  E  E  E  E  E  E  E  E    E  E  E  Q    E  Q
|-------------------------|----------20---20-20----|
|----22----22----22----22-|----20------------------|
|-19----19----19----19----|-22----22---------------|
|-------------------------|------------------------|
|-------------------------|------------------------|
|-------------------------|------------------------|


    G5    N.C.            G5    N.C.
  Gtr I
  E E E E  E  E  E  E   E E E E  E  E  E  E
|---------------------|---------------------|
|---------------------|---------------------|
|---------------------|---------------------|
|---5-5----7--7--8--5-|---5-5----5--5--5--5-|
|---5-5---------------|---5-5---------------|
|---5-5---------------|---5-5---------------|
|
| Gtr II
| H        E  E  E  E   E E E E  E  E  E  E
|---------------------|---------------------|
|---------------------|---------------------|
|----------7--7--7--7-|-7-7-7-7--7--7--7--7-|
|----------x--x--x--x-|-x-x-x-x--x--x--x--x-|
|----------5--5--5--5-|-5-5-5-5--5--5--5--5-|
|---------------------|---------------------|
|
| Gtr III
| E E E E  E  E  E  E   E E E E  E  E  E  E
|---------------------|---------------------|
|---------------------|---------------------|
|---------10-10-10-10-|---------10-10-10-10-|
|---5-5---------------|---5-5---------------|
|---5-5---------------|---5-5---------------|
|---5-5---------------|---5-5---------------|


    F5    N.C.            F5    N.C.
  E E E E  E  E  E  E   E E E E  E  E  E  E
|---------------------|----------------------|
|---------------------|----------------------|
|---------------------|----------------------|
|---3-3----8--8--7----|---3-3----5--5--5--5--|
|---3-3-------------8-|---3-3----------------|
|---3-3---------------|---3-3----------------|
|
| E E E E  E  E  E  E   E E E E  E  E  E  E
|---------------------|----------------------|
|---------------------|----------------------|
|-7-7-7-7--8--8-10-10-|-5-5-5-5--5--5--5--5--|
|-x-x-x-x--x--x--x--x-|-x-x-x-x--x--x--x--x--|
|-5-5-5-5--6--6--8--8-|-3-3-3-3--3--3--3--3--|
|---------------------|----------------------|
|
| E E E E  E  E  E  E   E E E E  E  E  E  E
|---------------------|----------------------|
|---------------------|----------------------|
|---------10-10-10-10-|---------10-10-10-10--|
|---3-3---------------|---3-3----------------|
|---3-3---------------|---3-3----------------|
|---3-3---------------|---3-3----------------|


    Eb5   N.C.          Eb5   N.C.
  E E E E E E  E  E   E E E E E E E E
|-------------------|-----------------|
|-------------------|-----------------|
|-------------------|-----------------|
|---1-1---8-8--7----|---1-1---5-5-5-5-|
|---1-1-----------6-|---1-1-----------|
|---1-1-------------|---1-1-----------|
|
| E E E E E E  E  E   E E E E E E E E
|-------------------|-----------------|
|-------------------|-----------------|
|-7-7-7-7-8-8-12-12-|-5-5-5-5-5-5-5-5-|
|-x-x-x-x-x-x--x--x-|-x-x-x-x-x-x-x-x-|
|-5-5-5-5-6-6-10-10-|-3-3-3-3-3-3-3-3-|
|-------------------|-----------------|
|
| E E E E E E  E  E   E E E E E E E E
|-------------------|-----------------|
|---------6-6--6--6-|---------6-6-6-6-|
|-------------------|-----------------|
|---1-1-------------|---1-1-----------|
|---1-1-------------|---1-1-----------|
|---1-1-------------|---1-1-----------|


    Bb5               C#5     D5
  E E E E E E E E   E  E  E E  E  E  Q
|-----------------|------------------------|
|-----------------|------------------------|
|-----------0-5-0-|------------------------|
|-------0-3-------|-7--5-------7-----8-----|
|---0-1-----------|-------8-5-----5--------|
|-----------------|------------------------|
|
| E E E E E E E E   E  E  E E  E  E  E  E
|-----------------|------------------------|
|-----------------|------------------------|
|-----------------|------------------------|
|-----------------|------------------------|
|-1-1-1-1-1-1-1-1S|=8--8--8-8--8--8--8--8--|
|-----------------|------------------------|
|
| E E E E E E E E   E  E  E E  E  E  E  E
|-----------------|------------------------|
|-----------------|------------------------|
|-----------------|------------------------|
|---8-8---8-8-8-8-|---11-11---12-12-12-12--|
|---8-8---8-8-8-8-|---11-11---12-12-12-12--|
|---8-8---8-8-8-8-|---11-11---12-12-12-12--|


    G5    N.C.        G5    N.C.        F5    N.C.          F5    N.C.
  E Q   E E E E E   E Q   E E E E E   E Q   E E E  E  E   E Q   E E E E E
|-----------------|-----------------|-------------------|------------------|
|-----------------|-----------------|-------------------|------------------|
|-----------------|-----------------|-------------------|------------------|
|---5-----7-7-8-5-|---5-----5-5-5-5-|---3-----8-8--7----|---3-----5-5-5-5--|
|---5-------------|---5-------------|---3-------------8-|---3--------------|
|---5-------------|---5-------------|---3---------------|---3--------------|
|
| E E E E E E E E   E E E E E E E E   E E E E E E  E  E   E E E E E E E E
|-----------------|-----------------|-------------------|------------------|
|-----------------|-----------------|-------------------|------------------|
|-----------------|-7-7-7-7-7-7-7-7-|-7-7-7-7-8-8-10-10-|-5-5-5-5-5-5-5-5--|
|-----------------|-x-x-x-x-x-x-x-x-|-x-x-x-x-x-x--x--x-|-x-x-x-x-x-x-x-x--|
|-5-5-5-5-5-5-5-5-|-5-5-5-5-5-5-5-5-|-5-5-5-5-6-6--8--8-|-3-3-3-3-3-3-3-3--|
|-----------------|-----------------|-------------------|------------------|
|
| E Q   E E E E E   E Q   E E E E E   E Q   E E E  E  E   E Q   E E E E E
|-----------------|-----------------|-------------------|------------------|
|---------6-6-6-6-|---------6-6-6-6-|---------6-6--6--6-|---------6-6-6-6--|
|-----------------|-----------------|-------------------|------------------|
|---5-------------|---5-------------|---3---------------|---3--------------|
|---5-------------|---5-------------|---3---------------|---3--------------|
|---5-------------|---5-------------|---3---------------|---3--------------|


    Eb5   N.C.          Eb5   N.C.
  E E E E E E  E  E   E E E E E E E E
|-------------------|-----------------|
|-------------------|-----------------|
|-------------------|-----------------|
|---1-1---8-8--7----|---1-1---5-5-5-5-|
|---1-1-----------6-|---1-1-----------|
|---1-1-------------|---1-1-----------|
|
| E E E E E E  E  E   E E E E E E E E
|-------------------|-----------------|
|-------------------|-----------------|
|-7-7-7-7-8-8-12-12-|-5-5-5-5-5-5-5-5-|
|-x-x-x-x-x-x--x--x-|-x-x-x-x-x-x-x-x-|
|-5-5-5-5-6-6-10-10-|-3-3-3-3-3-3-3-3-|
|-------------------|-----------------|
|
| E E E E E E  E  E   E E E E E E E E
|-------------------|-----------------|
|---------6-6--6--6-|---------6-6-6-6-|
|-------------------|-----------------|
|---1-1-------------|---1-1-----------|
|---1-1-------------|---1-1-----------|
|---1-1-------------|---1-1-----------|


    Bb5               C#5     D5
  E E E E E E E E   E  E  E E  E  E  Q
|-----------------|------------------------|
|-----------------|------------------------|
|-----------0-5-0-|------------------------|
|-------0-3-------|-7--5-------7-----8-----|
|---0-1-----------|-------8-5-----5--------|
|-----------------|------------------------|
|
| E E E E E E E E   E  E  E E  E  E  E  E
|-----------------|------------------------|
|-----------------|------------------------|
|-----------------|------------------------|
|-----------------|------------------------|
|-1-1-1-1-1-1-1-1S|=8--8--8-8--8--8--8--8--|
|-----------------|------------------------|
|
| E E E E E E E E   E  E  E E  E  E  E  E
|-----------------|------------------------|
|-----------------|------------------------|
|-----------------|------------------------|
|---8-8---8-8-8-8-|---11-11---12-12-12-12--|
|---8-8---8-8-8-8-|---11-11---12-12-12-12--|
|---8-8---8-8-8-8-|---11-11---12-12-12-12--|


 Verse
        G5
   E Q.        E  E   E  E    Q    Q      E Q.
|-15----------15-15--15-15-|-------------15----------|
|-15----------15-15--15-15-|-------------15----------|
|--------------------------|-------------------------|
|--------------------------|-------------------------|
|--------------------------|-------------------------|
|--------------------------|-------------------------|
|
|  E E   E  E  E  E   E  E    E  E E  E   E E   E  E
|--------------------------|-----5---(5)-------------|
|---------------------6----|-(6)---6-----------------|
|-----------7--7-(7)-----7-|-----------------------7-|
|--8-5--(8)----------------|--------------8-5--(8)---|
|--------------------------|-------------------------|
|--------------------------|-------------------------|
|
|  PM-------------------------------------------------
|  Q     E  H            E    E  E E  Q.        E  E
|--------------------------|-------------------------|
|--------------------------|-------------------------|
|--------------------------|-------------------------|
|--------------------------|-------------------------|
|--------5-----------------|-----5-5------------5----|
|--------5-----------------|-----5-5------------5----|


  N.C.
   E  E  H.                 W
|-15----------------------|----------------------|
|-15----------------------|----------------------|
|-------------------------|----------------------|
|-------------------------|----------------------|
|-------------------------|----------------------|
|-------------------------|----------------------|
|
|  E  E  E  E  E  E E  E    E E  E  E E  E  E E
|-----------------5---(5)-|----------------------|
|--------6----(6)---6-----|-----------------6----|
|--7-(7)----7-------------|---------7-7-(7)---7--|
|-------------------------|-8-5-(8)--------------|
|-------------------------|----------------------|
|-------------------------|----------------------|
|
|-|
|  W                        W
|-------------------------|----------------------|
|-------------------------|----------------------|
|-------------------------|----------------------|
|-------------------------|----------------------|
|-------------------------|----------------------|
|-------------------------|----------------------|


  Gtr I
   W                      W
|-----------------------|-----------------------|
|-----------------------|-----------------------|
|-----------------------|-----------------------|
|-----------------------|-----------------------|
|-----------------------|-----------------------|
|-----------------------|-----------------------|
|
| Gtr II
|  E  E E  E  E E  E  E   E  E  E E  E  E E  E
|-----5---(5)-----------|---------------5---(5)-|
|-(6)---6---------------|-------6---(6)---6-----|
|---------------------7-|-7-(7)---7-------------|
|-------------8-5-(8)---|-----------------------|
|-----------------------|-----------------------|
|-----------------------|-----------------------|


  Q.        E  E  E   E E    E  Q    E  E  E  E  E
|-------------------------|-------------------------|
|----------15-15-----15---|-15------15----15-15-15--|
|----------12-12-----12---|-12------12----12-12-12--|
|-------------------------|-------------------------|
|-------------------------|-------------------------|
|-------------------------|-------------------------|
|
| E  E  E   E  E  E   E E    E  E E  E  E  E  E  E
|-------------------------|-----5---(5)-------------|
|---------------------6---|-(6)---6-----------------|
|-----------7--7-(7)----7-|-------------5--3--5--3--|
|-8--5-(8)----------------|-------------------------|
|-------------------------|-------------------------|
|-------------------------|-------------------------|


  Gtr I
   q   q   q   q     E  E  E  E  H         W                 W
|-----------------|---------------------|-----------------|------------------|
|-15--15--15--15--|-15-15-15-15---------|-----------------|------------------|
|-12--12--12--12--|-15-15-15-15---------|-----------------|------------------|
|-----------------|---------------------|-----------------|------------------|
|-----------------|---------------------|-----------------|------------------|
|-----------------|---------------------|-----------------|------------------|
|
| Gtr II
|  H       q   q     q     q     q   q     q   q   q   q     q   q   q   q
|-----------------|---------------------|-----------------|------------------|
|---------11--11--|-10----10----10--10--|-13--13--13--13--|-11--11--10--10---|
|---------12--12--|-12----12----12--12--|-12--12--12--12--|-12--12--12--12---|
|-----------------|---------------------|-----------------|------------------|
|-----------------|---------------------|-----------------|------------------|
|-----------------|---------------------|-----------------|------------------|
|
| Gtr IV
|  H       H         W                     H       H         H       H
|---------23------|-22------------------|-20------23------|-22---------------|
|-----------------|---------------------|-----------------|---------20-------|
|-----------------|---------------------|-----------------|------------------|
|-----------------|---------------------|-----------------|------------------|
|-----------------|---------------------|-----------------|------------------|
|-----------------|---------------------|-----------------|------------------|


  Gtr II
   q   q   q   q     q   q   q   q
|-----------------|-----------------|
|-11--11--11--11--|-10--10--10--10--|
|-12--12--12--12--|-12--12--12--12--|
|-----------------|-----------------|
|-----------------|-----------------|
|-----------------|-----------------|
|
| Gtr IV
|  H       H         H       H
|-----------------|-----------------|
|-19------22------|-20--------------|
|-----------------|---------19------|
|-----------------|-----------------|
|-----------------|-----------------|
|-----------------|-----------------|


   q     q     q     q       q     q     q     q
|-------------------------|--------------------------|
|-13----13----13----13----|-11----11----10----10-----|
|-12----12----12----12----|-12----12----12----12-----|
|-------------------------|--------------------------|
|-------------------------|--------------------------|
|-------------------------|--------------------------|
|
|  E  E  E  E  E  E  E  E    E  E  E  E  E  E  E  E
|----------22----22-25-22-|-25-29-25-29--------------|
|-23----23----23----------|-------------23----23-----|
|----24-------------------|----------------24----24--|
|-------------------------|--------------------------|
|-------------------------|--------------------------|
|-------------------------|--------------------------|


 Bridge
  N.C.
 3/4
  Gtr I
   <                   >          <           >
   Q    +Q    +Q      +H.         H.         +H.
|------------------|-----------|----------|---------|
|------------------|-----------|----------|---------|
|-10---(10)--(10)--|-(10)------|--7-------|--(7)----|
|-12---(12)--(12)--|-(12)------|--8-------|--(8)----|
|------------------|-----------|----------|---------|
|------------------|-----------|----------|---------|
|
| Gtr II
|  <                   >          <           >
|  Q    +Q    +Q      +H.         H.         +H.
|------------------|-----------|----------|---------|
|------------------|-----------|----------|---------|
|-12---(12)--(12)--|-(12)------|--8-------|--(8)----|
|-12---(12)--(12)--|-(12)------|-10-------|-(10)----|
|------------------|-----------|----------|---------|
|------------------|-----------|----------|---------|
|
| Gtr III
|  H.                 +H.         H.          H.
|------------------|-----------|----------|---------|
|------------------|-----------|----------|---------|
|------------------|-----------|----------|---------|
|------------------|-----------|--1-------|---5-----|
|------------------|-----------|----------|---------|
|--5---------------|--(5)------|----------|---------|


   <                >               <                >
   H.              +H.              H.              +H.
|---------------|----------------|---------------|----------------|
|-11------------|-(11)-----------|-10------------|-(10)-----------|
|-12------------|-(12)-----------|-10------------|-(10)-----------|
|---------------|----------------|---------------|----------------|
|---------------|----------------|---------------|----------------|
|---------------|----------------|---------------|----------------|
|
|  <                >               <                >
|  H.              +H.              H.              +H.
|---------------|----------------|---------------|----------------|
|---------------|----------------|---------------|----------------|
|-15------------|-(15)-----------|-10------------|-(10)-----------|
|-13------------|-(13)-----------|-12------------|-(12)-----------|
|---------------|----------------|---------------|----------------|
|---------------|----------------|---------------|----------------|
|
|  E  E E E E E     E  E E E E E    E  E E E E E     E  E E E E E
|---------------|----------------|---------------|----------------|
|---------------|----------------|---------------|----------------|
|--6------------|----------------|---------5-----|----------------|
|-----5-8-----5-|---5--5-5-5-5-5-|-------8---7---|---7--0-7-0-7-8-|
|---------5-8---|----------------|--5--8-------8-|----------------|
|---------------|----------------|---------------|----------------|


  $
  Eb5                              D5
  Gtr I
   TP               TP              TP      TP        TP      TP
   H.              +H.              Q.      Q.        Q.      Q.
|-18------------|-(18)-----------|-17------13------|-15------17------|
|---------------|----------------|-----------------|-----------------|
|---------------|----------------|-----------------|-----------------|
|---------------|----------------|-----------------|-----------------|
|---------------|----------------|-----------------|-----------------|
|---------------|----------------|-----------------|-----------------|
|
| Gtr II
|  E  E E E E E     E  E E E E E    E  E E  E  E E    E  E E  E  E E
|---------------|---1----1-5-----|-----------------|--1----1--5------|
|---------3-1-3-|------3-----6---|----------3--1-3-|-----3-------7---|
|--3--0-3-------|--------------7-|--3--2-3---------|---------------7-|
|---------------|----------------|-----------------|-----------------|
|---------------|----------------|-----------------|-----------------|
|---------------|----------------|-----------------|-----------------|
|
| Gtr III
|  Q.     Q   E     H.              Q.      Q    E    Q    E  Q    E
|---------------|----------------|-----------------|-----------------|
|---------------|----------------|-----------------|-----------------|
|---------------|----------------|--7-------7----7-|--7----7--7----7-|
|--1------1---1-|---1------------|--7-------7----7-|--7----7--7----7-|
|--1------1---1-|---1------------|--5-------5----5-|--5----5--5----5-|
|--1------1---1-|---1------------|-----------------|-----------------|


  G5                               F#5
   TP               TP              TP      TP        TP
   H.              +H.              Q.      Q.        H.
|-18------------|-(18)-----------|-20------14------|-13------------|
|---------------|----------------|-----------------|---------------|
|---------------|----------------|-----------------|---------------|
|---------------|----------------|-----------------|---------------|
|---------------|----------------|-----------------|---------------|
|---------------|----------------|-----------------|---------------|
|
|  E  E E E E E     E  E E E E E    E  E E  E  E E    E  E E E E E
|---------------|---1----1-5-----|-----------------|--1----1-6-----|
|---------3-1-3-|------3-----6---|----------3--1-3-|-----3-----6---|
|--3--0-3-------|--------------7-|--3--2-3---------|-------------7-|
|---------------|----------------|-----------------|---------------|
|---------------|----------------|-----------------|---------------|
|---------------|----------------|-----------------|---------------|
|
|  Q.     Q   E     H.              Q.      Q    E    H.
|---------------|----------------|-----------------|---------------|
|---------------|----------------|-----------------|---------------|
|---------------|----------------|--6-------6----6-|--6------------|
|--5------5---5-|---5------------|--4-------4----4-|--4------------|
|--5------5---5-|---5------------|--4-------4----4-|--4------------|
|--5------5---5-|---5------------|--4-------4----4-|--4------------|


  Bb5                              D5
   TP               TP              TP      TP        TP      TP
   H.              +H.              Q.      Q.        Q.      Q.
|-18------------|-(18)-----------|-17------13------|-15------17------|
|---------------|----------------|-----------------|-----------------|
|---------------|----------------|-----------------|-----------------|
|---------------|----------------|-----------------|-----------------|
|---------------|----------------|-----------------|-----------------|
|---------------|----------------|-----------------|-----------------|
|
|  E  E E E E E     E  E E E E E    E  E E  E  E E    E  E E  E  E E
|---------------|---1----1-5-----|-----------------|--1----1--5------|
|---------3-1-3-|------3-----6---|----------3--1-3-|-----3-------7---|
|--3--0-3-------|--------------7-|--3--2-3---------|---------------7-|
|---------------|----------------|-----------------|-----------------|
|---------------|----------------|-----------------|-----------------|
|---------------|----------------|-----------------|-----------------|
|
|  Q.     Q   E     H.              Q.      Q    E    Q    E  Q    E
|---------------|----------------|-----------------|-----------------|
|---------------|----------------|-----------------|-----------------|
|---------------|----------------|--7-------7----7-|--7----7--7----7-|
|--8------8---8-|---8------------|--7-------7----7-|--7----7--7----7-|
|--8------8---8-|---8------------|--5-------5----5-|--5----5--5----5-|
|--8------8---8-|---8------------|-----------------|-----------------|


  G5                               F#5
   TP               TP              TP      TP        TP
   H.              +H.              Q.      Q.        H.
|-18------------|-(18)-----------|-20------14------|-13------------|
|---------------|----------------|-----------------|---------------|
|---------------|----------------|-----------------|---------------|
|---------------|----------------|-----------------|---------------|
|---------------|----------------|-----------------|---------------|
|---------------|----------------|-----------------|---------------|
|
|  E  E E E E E     E  E E E E E    E  E E  E  E E    E  E E E E E
|---------------|---1----1-5-----|-----------------|--1----1-6-----|
|---------3-1-3-|------3-----6---|----------3--1-3-|-----3-----6---|
|--3--0-3-------|--------------7-|--3--2-3---------|-------------7-|
|---------------|----------------|-----------------|---------------|
|---------------|----------------|-----------------|---------------|
|---------------|----------------|-----------------|---------------|
|
|  Q.     Q   E     H.              Q.      Q    E    H.
|---------------|----------------|-----------------|---------------|
|---------------|----------------|-----------------|---------------|
|---------------|----------------|--6-------6----6-|--6------------|
|--5------5---5-|---5------------|--4-------4----4-|--4------------|
|--5------5---5-|---5------------|--4-------4----4-|--4------------|
|--5------5---5-|---5------------|--4-------4----4-|--4------------|


 Chorus
  G5                                F5
   >
   H.                   +H.          +H.                   +H.
|-15-----------------|-(15)-------|-(15)----------------|-(15)-------|
|--------------------|------------|---------------------|------------|
|--------------------|------------|---------------------|------------|
|--------------------|------------|---------------------|------------|
|--------------------|------------|---------------------|------------|
|--------------------|------------|---------------------|------------|
|
|  E   E  E  E  E  E     q   H        E   E  E  E  E  E     q   H
|--------------------|------------|---------------------|------------|
|--------------------|------------|---------------------|------------|
|-12--12-12-12-12-12-|--12--------|--14--14-14-14-14-14-|--14--------|
|--x---x--x--x--x--x-|---x--------|---x---x--x--x--x--x-|---x--------|
|-10--10-10-10-10-10-|--10--------|--12--12-12-12-12-12-|--12--------|
|--------------------|------------|---------------------|------------|
|
|  E   E  E  E  E  E     q   H        E   E  E  E  E  E     q   H
|--------------------|------------|---------------------|------------|
|--------------------|------------|---------------------|------------|
|--------------------|------------|---------------------|------------|
|--5---5--5--5--5--5-|---5--------|---3---3--3--3--3--3-|---3--------|
|--5---5--5--5--5--5-|---5--------|---3---3--3--3--3--3-|---3--------|
|--5---5--5--5--5--5-|---5--------|---3---3--3--3--3--3-|---3--------|


  Eb5                                D5
  E   E E  E E  E   E  E E  E E  E    E   E  E  E  E  E    E  E  E  E  E  E
|-----------------|----------------|--------------------|-------------------|
|-8--10-----------|-8-10-----------|-10--11-------------|-10-11-------------|
|-------7-10-7----|------7-10-7----|--------10-12-------|-------10-12-------|
|--------------10-|-------------10-|--------------10-12-|-------------10-12-|
|-----------------|----------------|--------------------|-------------------|
|-----------------|----------------|--------------------|-------------------|
|
| Q.       Q    E   Q    E  Q    E    Q.        Q     E    Q     E  Q     E
|-----------------|----------------|--------------------|-------------------|
|-----------------|----------------|--------------------|-------------------|
|-3--------3----3-|-3----3--3----3-|--7---------7-----7-|--7-----7--7-----7-|
|-x--------x----x-|-x----x--x----x-|--x---------x-----x-|--x-----x--x-----x-|
|-1--------1----1-|-1----1--1----1-|--5---------5-----5-|--5-----5--5-----5-|
|-----------------|----------------|--------------------|-------------------|
|
| Q.       Q    E   Q    E  Q    E    Q.        Q     E    Q     E  Q     E
|-----------------|----------------|--------------------|-------------------|
|-----------------|----------------|--------------------|-------------------|
|-----------------|----------------|--------------------|-------------------|
|-1--------1----1-|-1----1--1----1-|--0---------0-----0-|--0-----0--0-----0-|
|-1--------1----1-|-1----1--1----1-|--0---------0-----0-|--0-----0--0-----0-|
|-1--------1----1-|-1----1--1----1-|--0---------0-----0-|--0-----0--0-----0-|


  G5                           F5
   >
   H.              +H.          +H.                   +H.
|---------------|------------|---------------------|------------|
|---------------|------------|---------------------|------------|
|---------------|------------|---------------------|------------|
|-12------------|-(12)-------|-(12)----------------|-(12)-------|
|---------------|------------|---------------------|------------|
|---------------|------------|---------------------|------------|
|
|  E  E E E E E     q   H        E   E  E  E  E  E     q   H
|--6--6-6-6-6-6-|---6--------|--11--11-11-11-11-11-|--11--------|
|--8--8-8-8-8-8-|---8--------|--10--10-10-10-10-10-|--10--------|
|--7--7-7-7-7-7-|---7--------|---8---8--8--8--8--8-|---8--------|
|---------------|------------|---------------------|------------|
|---------------|------------|---------------------|------------|
|---------------|------------|---------------------|------------|
|
|  E  E E E E E     q   H        E   E  E  E  E  E     q   H
|---------------|------------|---------------------|------------|
|---------------|------------|---------------------|------------|
|---------------|------------|---------------------|------------|
|--5--5-5-5-5-5-|---5--------|---3---3--3--3--3--3-|---3--------|
|--5--5-5-5-5-5-|---5--------|---3---3--3--3--3--3-|---3--------|
|--5--5-5-5-5-5-|---5--------|---3---3--3--3--3--3-|---3--------|


  Eb5                                D5
  E   E E  E E  E   E  E E  E E  E    E   E  E  E  E  E    E  E  E  E  E  E
|-----------------|----------------|--------------------|-------------------|
|-8--10-----------|-8-10-----------|-10--11-------------|-10-11-------------|
|-------7-10-7----|------7-10-7----|--------10-12-------|-------10-12-------|
|--------------10-|-------------10-|--------------10-12-|-------------10-12-|
|-----------------|----------------|--------------------|-------------------|
|-----------------|----------------|--------------------|-------------------|
|
| Q.       Q    E   Q    E  Q    E    Q.        Q     E    Q     E  Q     E
|-----------------|----------------|--------------------|-------------------|
|-----------------|----------------|--------------------|-------------------|
|-3--------3----3-|-3----3--3----3-|--7---------7-----7-|--7-----7--7-----7-|
|-x--------x----x-|-x----x--x----x-|--x---------x-----x-|--x-----x--x-----x-|
|-1--------1----1-|-1----1--1----1-|--5---------5-----5-|--5-----5--5-----5-|
|-----------------|----------------|--------------------|-------------------|
|
| Q.       Q    E   Q    E  Q    E    Q.        Q     E    Q     E  Q     E
|-----------------|----------------|--------------------|-------------------|
|-----------------|----------------|--------------------|-------------------|
|-----------------|----------------|--------------------|-------------------|
|-1--------1----1-|-1----1--1----1-|--0---------0-----0-|--0-----0--0-----0-|
|-1--------1----1-|-1----1--1----1-|--0---------0-----0-|--0-----0--0-----0-|
|-1--------1----1-|-1----1--1----1-|--0---------0-----0-|--0-----0--0-----0-|


                                        To Coda
  Eb5                     D5    F5     G5   A5
  Gtr I
  Q.   Q  E   Q  E Q  E    Q.   Q.     Q.   Q.
|-----------|-----------|------------|-----------|
|-----------|-----------|------------|-----------|
|-8----8--8-|-8--8-8--8-|--7----7----|-7----7----|
|-x----x--x-|-x--x-x--x-|--x----x----|-x----x----|
|-6----6--6-|-6--6-6--6-|--5----5----|-5----5----|
|-----------|-----------|------------|-----------|
|
| Gtrs II, III
| Q.   Q  E   Q  E Q  E    Q.   Q.     Q.   Q.
|-----------|-----------|------------|-----------|
|-----------|-----------|------------|-----------|
|-----------|-----------|-/7\--------|-----------|
|-1----1--1-|-1--1-1--1-|-/7\---3----|-5----7----|
|-1----1--1-|-1--1-1--1-|-/5\---3----|-5----7----|
|-1----1--1-|-1--1-1--1-|-------3----|-5----7----|


 Bridge
  N.C.
  Gtr I
   E  E  E   E  E  E     E  E  E  E E  E
|---------------------|-----------5---(5)-|
|---------------------|--6----(6)---6-----|
|------------7--7-(7)-|-----7-------------|
|--8--5-(8)-----------|-------------------|
|---------------------|-------------------|
|---------------------|-------------------|
|
| Gtr II
|  E  E  E   E  E  E     E  E  E  E E  E
|---------------------|-------------------|
|-11-10---------------|-------------------|
|-----------12-10-----|-------------------|
|---------------------|-12-10-----8-7-----|
|---------------------|-------------------|
|---------------------|-------------------|


   E E  E   E  E  E    E E  E  E E  E
|--------------------|---------5---(5)-|
|--------------------|-6---(6)---6-----|
|-----------7--7-(7)-|---7-------------|
|--8-5-(8)-----------|-----------------|
|--------------------|-----------------|
|--------------------|-----------------|
|
|  E E  E   E  E  E    E E  E  E Q
|--------------------|-----------------|
|--------------------|-----------------|
|--------------------|-----------------|
|--------------------|-----------------|
|-10-8---------------|-----------------|
|----------12-10-----|-8-7-----3-4-----|


   Verse
    G5
   4/4
     Q   H       Q     H       q   Q     Q   q   Q   Q     q   Q   Q   q
||------------------|-----------------|-----------------|------------------|
||o-----------------|-----------------|-----------------|------------------|
||------------------|-----------------|-----------------|------------------|
||---5-----------5--|----------5---5--|------5---5------|--5---5-------5---|
||o--5-----------5--|----------5---5--|------5---5------|--5---5-------5---|
||---5-----------5--|----------5---5--|------5---5------|--5---5-------5---|
|
|    q   q   q   q     q   q   q   q     q   q   q   q     q   q   q   q
||------------------|-----------------|-----------------|------------------|
||o-11--11--11--11--|-11--11--11--11--|-10--10--10--10--|-10--10--10--10---|
||--12--12--12--12--|-12--12--12--12--|-12--12--12--12--|-12--12--12--12---|
||------------------|-----------------|-----------------|------------------|
||o-----------------|-----------------|-----------------|------------------|
||------------------|-----------------|-----------------|------------------|


   Q   H       q     Q   Q   Q   Q     q   Q   H         Q   q   Q   Q
|-----------------|-----------------|-----------------|-------------------||
|-----------------|-----------------|-----------------|------------------o||
|-----------------|-----------------|-----------------|-------------------||
|--5-----------5--|--5-------5------|--5---5----------|------5---5--------||
|--5-----------5--|--5-------5------|--5---5----------|------5---5-------o||
|--5-----------5--|--5-------5------|--5---5----------|------5---5--------||
|
|  q   q   q   q     q   q   q   q     q   q   q   q     q   q   q   q
|-----------------|-----------------|-----------------|-------------------||
|-13--13--13--13--|-13--13--13--13--|-11--11--11--11--|-10--10--10--10---o||
|-12--12--12--12--|-12--12--12--12--|-12--12--12--12--|-12--12--12--12----||
|-----------------|-----------------|-----------------|-------------------||
|-----------------|-----------------|-----------------|------------------o||
|-----------------|-----------------|-----------------|-------------------||


 Bridge
  N.C.
 3/4
  Gtr I
   E  E  E   E  E  E     E  E  E  E E  E
|---------------------|-----------5---(5)-|
|---------------------|--6----(6)---6-----|
|------------7--7-(7)-|-----7-------------|
|--8--5-(8)-----------|-------------------|
|---------------------|-------------------|
|---------------------|-------------------|
|
| Gtr II
|  E  E  E   E  E  E     E  E  E  E E  E
|---------------------|-------------------|
|-11-10---------------|-------------------|
|-----------12-10-----|-------------------|
|---------------------|-12-10-----8-7-----|
|---------------------|-------------------|
|---------------------|-------------------|
|
| Gtr III
|  W                     W
|---------------------|-------------------|
|---------------------|-------------------|
|---------------------|-------------------|
|---------------------|-------------------|
|---------------------|-------------------|
|---------------------|-------------------|


                           D.S. al Coda
  G5
   E E  E   E  E  E    E E  E  E E  E
|--------------------|---------5---(5)---|
|--------------------|-6---(6)---6-------|
|-----------7--7-(7)-|---7---------------|
|--8-5-(8)-----------|-------------------|
|--------------------|-------------------|
|--------------------|-------------------|
|
|  E E  E   E  E  E    E E  E  E Q
|--------------------|-------------------|
|--------------------|-------------------|
|--------------------|-------------------|
|--------------------|-------------------|
|-10-8---------------|-------------------|
|----------12-10-----|-8-7-----3-4-------|
|
|  <
|  PM----------------------------|
|  Q    Q      Q       Q    Q    Q
|--------------------|-------------------|
|--------------------|-------------------|
|--------------------|-------------------|
|--------------------|-------------------|
|--5----5------5-----|-5----5----5-------|
|--5----5------5-----|-5----5----5-------|


 Interlude
  &
  N.C.
  Gtr I
   q    E   q    E     q    E   q    E
|-15--(15)-13--(13)-|-------------------|
|-------------------|-15--(15)----------|
|-------------------|----------15--(15)-|
|-------------------|-------------------|
|-------------------|-------------------|
|-------------------|-------------------|
|
| Gtr II
|  q    E   q    E     q    E   q    E
|-11--(11)-10--(10)-|-------------------|
|-------------------|-11--(11)----------|
|-------------------|----------12--(12)-|
|-------------------|-------------------|
|-------------------|-------------------|
|-------------------|-------------------|


   q    E   q    E     q    E   q    E
|-15--(15)-13--(13)-|-------------------|
|-------------------|-15--(15)----------|
|-------------------|----------15--(15)-|
|-------------------|-------------------|
|-------------------|-------------------|
|-------------------|-------------------|
|
|  q    E   q    E     q    E   q    E
|-11--(11)-10--(10)-|-------------------|
|-------------------|-11--(11)----------|
|-------------------|----------12--(12)-|
|-------------------|-------------------|
|-------------------|-------------------|
|-------------------|-------------------|


  Gtr I
   q     E   q     E     q     E   q     E
|-15---(15)-13---(13)-|---------------------|
|---------------------|-15---(15)-----------|
|---------------------|-----------15---(15)-|
|---------------------|---------------------|
|---------------------|---------------------|
|---------------------|---------------------|
|
| Gtr II
|  q     E   q     E     q     E   q     E
|-11---(11)-10---(10)-|---------------------|
|---------------------|-11---(11)-----------|
|---------------------|-----------12---(12)-|
|---------------------|---------------------|
|---------------------|---------------------|
|---------------------|---------------------|
|
| Gtr III
|  PM--|           PM--------|           PM--
|  E E   E   E E   E     E E   E   E E   E
|---------------------|---------------------|
|---------------------|---------------------|
|---------------------|---------------------|
|------------8-7------|------------8-7------|
|-10-8--10---------8--|-10-8--10---------8--|
|---------------------|---------------------|


   q     E   q     E     q     E   q     E
|-15---(15)-13---(13)-|---------------------|
|---------------------|-15---(15)-----------|
|---------------------|-----------15---(15)-|
|---------------------|---------------------|
|---------------------|---------------------|
|---------------------|---------------------|
|
|  q     E   q     E     q     E   q     E
|-11---(11)-10---(10)-|---------------------|
|---------------------|-11---(11)-----------|
|---------------------|-----------12---(12)-|
|---------------------|---------------------|
|---------------------|---------------------|
|---------------------|---------------------|
|
|------|           PM--------|           PM
|  E E   E   E E   E     E E   E   E E   E
|---------------------|---------------------|
|---------------------|---------------------|
|---------------------|---------------------|
|------------8-7------|------------8-7------|
|-10-8--10---------8--|-10-8--10---------8--|
|---------------------|---------------------|


   4/4
     q     E   q     E   q       E   q     E   q     E   E
||--15---(15)-13---(13)------|----------------15---(15)-13-|
||o---------------------15---|-(15)------------------------|
||---------------------------|------15---(15)--------------|
||---------------------------|-----------------------------|
||o--------------------------|-----------------------------|
||---------------------------|-----------------------------|
|
|    q     E   q     E   q       E   q     E   q     E   E
||--11---(11)-10---(10)------|----------------11---(11)-10-|
||o---------------------11---|-(11)------------------------|
||---------------------------|------12---(12)--------------|
||---------------------------|-----------------------------|
||o--------------------------|-----------------------------|
||---------------------------|-----------------------------|
|
|    PM--|           PM--------|           PM------|
|    E E   E   E E   E   E E     E   E E   E   E E   E   E
||---------------------------|-----------------------------|
||o--------------------------|-----------------------------|
||---------------------------|-----------------------------|
||-------------8-7-----------|-------8-7-----------------8-|
||o-10-8--10---------8--10-8-|--10---------8--10-8--10-----|
||---------------------------|-----------------------------|


  E   E   q     E   q     E   3x
|---(13)----------------------||
|--------15---(15)-----------o||
|------------------15---(15)--||
|-----------------------------||
|----------------------------o||
|-----------------------------||
|
| E   E   q     E   q     E   3x
|---(10)----------------------||
|--------11---(11)-----------o||
|------------------12---(12)--||
|-----------------------------||
|----------------------------o||
|-----------------------------||
|
|     PM------|           PM
| E   E   E E   E   E E   E   3x
|-----------------------------||
|----------------------------o||
|-----------------------------||
|-7-----------------8-7-------||
|-----8--10-8--10---------8--o||
|-----------------------------||


   q     E   q     E   q       E   q     E   q    q      W
|-15---(15)-13---(13)------|----------------15---15---|-13----|
|---------------------15---|-(15)---------------------|-------|
|--------------------------|------15---(15)-----------|-------|
|--------------------------|--------------------------|-------|
|--------------------------|--------------------------|-------|
|--------------------------|--------------------------|-------|
|
|  q     E   q     E   q       E   q     E   q    q      W
|-11---(11)-10---(10)------|----------------11---11---|-10----|
|---------------------11---|-(11)---------------------|-------|
|--------------------------|------12---(12)-----------|-------|
|--------------------------|--------------------------|-------|
|--------------------------|--------------------------|-------|
|--------------------------|--------------------------|-------|
|
|  PM--|           PM--------|           PM------|
|  E E   E   E E   E   E E     E   E E   E   E E  E E    W
|--------------------------|--------------------------|-------|
|--------------------------|--------------------------|-------|
|--------------------------|--------------------------|-------|
|------------8-7-----------|-------8-7--------------8-|--7----|
|-10-8--10---------8--10-8-|--10---------8--10-8-10---|-------|
|--------------------------|--------------------------|-------|


 Bridge/Build Up
  N.C.
 3/4
                         <          >
   W           W         H.        +H.
|----------|-----------|---------|--------|
|----------|-----------|---------|--------|
|----------|-----------|-7-------|-(7)----|
|----------|-----------|-8-------|-(8)----|
|----------|-----------|---------|--------|
|----------|-----------|---------|--------|
|
|  <           >
|  H.         +H.        W          W
|----------|-----------|---------|--------|
|----------|-----------|---------|--------|
|-10-------|-(10)------|---------|--------|
|-12-------|-(12)------|---------|--------|
|----------|-----------|---------|--------|
|----------|-----------|---------|--------|
|
|  H.          H.        H.         H.
|----------|-----------|---------|--------|
|----------|-----------|---------|--------|
|----------|-----------|---------|--------|
|----------|---5-------|---------|--5-----|
|----------|-----------|-6-------|--------|
|--5-------|-----------|---------|--------|


                               <           >
   W           W               H.         +H.
|----------|----------------|----------|----------------|
|----------|----------------|----------|----------------|
|----------|----------------|--7-------|--(7)-----------|
|----------|----------------|-10-------|-(10)-----------|
|----------|----------------|----------|----------------|
|----------|----------------|----------|----------------|
|
|  <           >
|  H.         +H.              W           W
|----------|----------------|----------|----------------|
|----------|----------------|----------|----------------|
|-12-------|-(12)-----------|----------|----------------|
|-11-------|-(11)-----------|----------|----------------|
|----------|----------------|----------|----------------|
|----------|----------------|----------|----------------|
|
|  H.          E  E E E E E    H.          E  E E E E E
|----------|----------------|----------|----------------|
|----------|----------------|----------|----------------|
|----------|----------------|----------|----------------|
|----------|---5--5-5-5-5-5-|----------|---4--4-4-4-4-4-|
|--4-------|----------------|--5-------|----------------|
|----------|----------------|----------|----------------|


                                   <               >
   W                W              H.             +H.
|---------------|----------------|--------------|---------------|
|---------------|----------------|--------------|---------------|
|---------------|----------------|-7------------|-(7)-----------|
|---------------|----------------|-8------------|-(8)-----------|
|---------------|----------------|--------------|---------------|
|---------------|----------------|--------------|---------------|
|
|  <                >
|  H.              +H.             W               W
|---------------|----------------|--------------|---------------|
|---------------|----------------|--------------|---------------|
|-10------------|-(10)-----------|--------------|---------------|
|-12------------|-(12)-----------|--------------|---------------|
|---------------|----------------|--------------|---------------|
|---------------|----------------|--------------|---------------|
|
|  E  E E E E E     E  E E E E E   E  E E E E E    E  E E E E E
|---------------|----------------|--------------|---------------|
|---------------|----------------|--------------|---------------|
|---------------|----------------|--------------|---------------|
|-------7-8-7---|---5--5-5-5-5-5-|--------8-7---|--5--5-5-5-5-5-|
|-----8-------8-|----------------|----6-8-----8-|---------------|
|--5------------|----------------|-5------------|---------------|


                                   <                >
   W               W               H.              +H.
|--------------|----------------|---------------|----------------|
|--------------|----------------|---------------|----------------|
|--------------|----------------|--7------------|--(7)-----------|
|--------------|----------------|-10------------|-(10)-----------|
|--------------|----------------|---------------|----------------|
|--------------|----------------|---------------|----------------|
|
|  <               >
|  H.             +H.              W                W
|--------------|----------------|---------------|----------------|
|--------------|----------------|---------------|----------------|
|-12-----------|-(12)-----------|---------------|----------------|
|-11-----------|-(11)-----------|---------------|----------------|
|--------------|----------------|---------------|----------------|
|--------------|----------------|---------------|----------------|
|
|  E  E E Q  E     E  E E E E E    E  E E E E E     E  E E E E E
|--------------|----------------|---------------|----------------|
|--------------|----------------|---------------|----------------|
|--------------|----------------|---------3-2---|----------------|
|-----5-8------|---5--5-5-5-5-5-|--0--3-5-----3-|---7--0-7-0-7-8-|
|--4------8--8-|----------------|---------------|----------------|
|--------------|----------------|---------------|----------------|


 Out-Chorus
  G5
   q      E   q     E     q      E   q     E
|-15----(15)-13---(13)-|----------------------|
|----------------------|-15----(15)-----------|
|----------------------|------------15---(15)-|
|----------------------|----------------------|
|----------------------|----------------------|
|----------------------|----------------------|
|
|  H.                     H.
|----------------------|----------------------|
|----------------------|----------------------|
|----------------------|----------------------|
|----------------------|--5-------------------|
|----------------------|----------------------|
|--5-------------------|----------------------|
|
|  E  E   E   E E   E     E  E   E   E E   E
|----------------------|----------------------|
|----------------------|----------------------|
|----------------------|----------------------|
|--5--5---5---5-5---5--|--5--5---5---5-5---5--|
|--5--5---5---5-5---5--|--5--5---5---5-5---5--|
|--5--5---5---5-5---5--|--5--5---5---5-5---5--|


  Eb5
   q      E   q     E     q      E   q     E
|-15----(15)-13---(13)-|----------------------|
|----------------------|-15----(15)-----------|
|----------------------|------------15---(15)-|
|----------------------|----------------------|
|----------------------|----------------------|
|----------------------|----------------------|
|
|  H.                     H.
|----------------------|----------------------|
|----------------------|----------------------|
|----------------------|----------------------|
|----------------------|--5-------------------|
|--6-------------------|----------------------|
|----------------------|----------------------|
|
|  E  E   E   E E   E     E  E   E   E E   E
|----------------------|----------------------|
|----------------------|----------------------|
|--8--8---8---8-8---8--|--8--8---8---8-8---8--|
|--8--8---8---8-8---8--|--8--8---8---8-8---8--|
|--6--6---6---6-6---6--|--6--6---6---6-6---6--|
|----------------------|----------------------|


  C#5
   q      E   q     E     q      E   q     E
|-15----(15)-13---(13)-|----------------------|
|----------------------|-15----(15)-----------|
|----------------------|------------15---(15)-|
|----------------------|----------------------|
|----------------------|----------------------|
|----------------------|----------------------|
|
|  H.                     H.
|----------------------|----------------------|
|----------------------|----------------------|
|----------------------|----------------------|
|----------------------|--5-------------------|
|--4-------------------|----------------------|
|----------------------|----------------------|
|
|  E  E   E   E E   E     E  E   E   E E   E
|----------------------|----------------------|
|----------------------|----------------------|
|--6--6---6---6-6---6--|--6--6---6---6-6---6--|
|--6--6---6---6-6---6--|--6--6---6---6-6---6--|
|--4--4---4---4-4---4--|--4--4---4---4-4---4--|
|----------------------|----------------------|


  D5
   q      E   q     E     q     E   q     E
|-15----(15)-13---(13)-|---------------------|
|----------------------|-15---(15)-----------|
|----------------------|-----------15---(15)-|
|----------------------|---------------------|
|----------------------|---------------------|
|----------------------|---------------------|
|
|  H.                     E E   E   E E   E
|----------------------|---------------------|
|----------------------|---------------------|
|----------------------|---------------------|
|----------------------|--4-5---7---4-5---7--|
|--5-------------------|---------------------|
|----------------------|---------------------|
|
|  E  E   E   E E   E     E E   E   E E   E
|----------------------|---------------------|
|----------------------|---------------------|
|--7--7---7---7-7---7--|--7-7---7---7-7---7--|
|--7--7---7---7-7---7--|--7-7---7---7-7---7--|
|--5--5---5---5-5---5--|--5-5---5---5-5---5--|
|----------------------|---------------------|


  G5
   q     E   q     E     q      E   q     E
|-15---(15)-13---(13)-|----------------------|
|---------------------|-15----(15)-----------|
|---------------------|------------15---(15)-|
|---------------------|----------------------|
|---------------------|----------------------|
|---------------------|----------------------|
|
|  Q     E   E E   E     H.
|---------------------|----------------------|
|---------------------|----------------------|
|---------------------|----------------------|
|--5---------------3--|--5-------------------|
|--------5---3-5------|----------------------|
|---------------------|----------------------|
|
|  E E   E   E E   E     E  E   E   E E   E
|---------------------|----------------------|
|---------------------|----------------------|
|---------------------|----------------------|
|--5-5---5---5-5---5--|--5--5---5---5-5---5--|
|--5-5---5---5-5---5--|--5--5---5---5-5---5--|
|--5-5---5---5-5---5--|--5--5---5---5-5---5--|


  Eb5
   q     E   q     E     q      E   q     E
|-15---(15)-13---(13)-|----------------------|
|---------------------|-15----(15)-----------|
|---------------------|------------15---(15)-|
|---------------------|----------------------|
|---------------------|----------------------|
|---------------------|----------------------|
|
|  E E   E   E E   E     H.
|---------------------|----------------------|
|---------------------|----------------------|
|---------------------|----------------------|
|------------5-7------|--5-------------------|
|--6-5---6---------8--|----------------------|
|---------------------|----------------------|
|
|  E E   E   E E   E     E  E   E   E E   E
|---------------------|----------------------|
|---------------------|----------------------|
|--8-8---8---8-8---8--|--8--8---8---8-8---8--|
|--8-8---8---8-8---8--|--8--8---8---8-8---8--|
|--6-6---6---6-6---6--|--6--6---6---6-6---6--|
|---------------------|----------------------|


  C#5
   q      E   q     E     q      E   q     E
|-15----(15)-13---(13)-|----------------------|
|----------------------|-15----(15)-----------|
|----------------------|------------15---(15)-|
|----------------------|----------------------|
|----------------------|----------------------|
|----------------------|----------------------|
|
|  H.                     H.
|----------------------|----------------------|
|----------------------|----------------------|
|----------------------|----------------------|
|----------------------|--5-------------------|
|--4-------------------|----------------------|
|----------------------|----------------------|
|
|  E  E   E   E E   E     E  E   E   E E   E
|----------------------|----------------------|
|----------------------|----------------------|
|--6--6---6---6-6---6--|--6--6---6---6-6---6--|
|--6--6---6---6-6---6--|--6--6---6---6-6---6--|
|--4--4---4---4-4---4--|--4--4---4---4-4---4--|
|----------------------|----------------------|


  D5
   q      E   q     E     q     E   q     E
|-15----(15)-13---(13)-|---------------------|
|----------------------|-15---(15)-----------|
|----------------------|-----------15---(15)-|
|----------------------|---------------------|
|----------------------|---------------------|
|----------------------|---------------------|
|
|  H.                     E E   E   E E   E
|----------------------|---------------------|
|----------------------|---------------------|
|----------------------|---------------------|
|----------------------|--4-5---7---4-5---7--|
|--5-------------------|---------------------|
|----------------------|---------------------|
|
|  E  E   E   E E   E     E E   E   E E   E
|----------------------|---------------------|
|----------------------|---------------------|
|--7--7---7---7-7---7--|--7-7---7---7-7---7--|
|--7--7---7---7-7---7--|--7-7---7---7-7---7--|
|--5--5---5---5-5---5--|--5-5---5---5-5---5--|
|----------------------|---------------------|


  Eb5                         D5     F5     G5     A5
   H.           +H.             H.           +H.
|-15---------|-(15)---------|--14---------|-(14)--------|
|------------|--------------|-------------|-------------|
|------------|--------------|-------------|-------------|
|------------|--------------|-------------|-------------|
|------------|--------------|-------------|-------------|
|------------|--------------|-------------|-------------|
|
|  Q.   Q  E     Q   E Q  E     Q.   Q.       Q.   Q.
|------------|--------------|-------------|-------------|
|------------|--------------|-------------|-------------|
|--8----8--8-|---8---8-8--8-|-/11----7----|--/8----7----|
|--x----x--x-|---x---x-x--x-|---x----x----|---x----x----|
|--6----6--6-|---6---6-6--6-|--/9----5----|--/6----5----|
|------------|--------------|-------------|-------------|
|
|  Q.   Q  E     Q   E Q  E     Q.   Q.       Q.   Q.
|------------|--------------|-------------|-------------|
|------------|--------------|-------------|-------------|
|------------|--------------|--/7---------|-------------|
|--1----1--1-|---1---1-1--1-|--/7----3----|---5----7----|
|--1----1--1-|---1---1-1--1-|--/5----3----|---5----7----|
|--1----1--1-|---1---1-1--1-|--------3----|---5----7----|


  G5
 4/4
                                  >
   W             +W              +W                   +W
|-15----------|-(15)----------|-(15)---------------|-(15)--------------|
|-------------|---------------|--------------------|-------------------|
|-------------|---------------|--------------------|-------------------|
|-------------|---------------|--------------------|-------------------|
|-------------|---------------|--------------------|-------------------|
|-------------|---------------|--------------------|-------------------|
|
|  Q  H    Q      H     q  Q      E  E E E E E E E     E  E E E E E Q
|-------------|---------------|--------------------|-------------------|
|-------------|---------------|--------------------|-------------------|
|-------------|---------------|--------------0-5-0-|-------------------|
|--5-------5--|---------5--5--|----------0-3-------|---7--5-----7---8--|
|--5-------5--|---------5--5--|------0-1-----------|--------8-5---5----|
|--5-------5--|---------5--5--|--------------------|-------------------|
|
|  Q  H    Q      H     q  Q      Q    q   Q   Q       q    q   q   Q
|-------------|---------------|--------------------|-------------------|
|-------------|---------------|--------------------|-------------------|
|-------------|---------------|--------------------|-------------------|
|--5-------5--|---------5--5--|--------5---5-------|---5----5---5---5--|
|--5-------5--|---------5--5--|--------5---5-------|---5----5--
Добавлено: 27.02.2012
Другие материалы по этой песне:
  • Аккорды и текст

Страница создана 27.02.2012
http://primanota.ru/the-receiving-end-of-sirens/flee-the-factory-chords.htm
Привет, Гость.
Предлагаем пройти революционный курс по гитаре.
Подарок от PrimaNota.Ru, забирай!