PrimaNota.ru - самый крупный в мире бесплатный архив песенных текстов, аккордов, табулатур и нот


The Receiving End Of Sirens - Broadcast Quality - текст песни, таба, видео

Регистрация Запомнить меня
Войти через:  Facebook Google Twitter Vk Yandex Mail.ru

The Receiving End Of Sirens - Broadcast Quality - текст песни, таба, видео

Печатать
Просмотров: 121
I saw treos live and they played it exactly this way!! 100% correct :)
my first tab :P


D|--------------------------------------------------------------------|
A|--10-----------10---------------------------------------------------|
F|-------10-----------10-----12----10------12----10-------------------|
C|----12----12-----12----12-----12----12------12----12----------------|
G|--------------------------------------------------------------------|
C|--------------------------------------------------------------------|

D|--------------------------------------------------------------------|
A|--------------------------------------------------------------------|
F|--9----10-----9----10-----14--12----12--14--12------12--------------|
C|----12----12----12----12---------12-------------12------------------|
G|--------------------------------------------------------------------|
C|--------------------------------------------------------------------|

enjoy :)
Добавлено: 08.05.2012
Другие материалы по этой песне:

Страница создана 28.02.2012
http://primanota.ru/the-receiving-end-of-sirens/broadcast-quality-chords.htm
Привет, Гость.
Предлагаем пройти революционный курс по гитаре.
Подарок от PrimaNota.Ru, забирай!