PrimaNota.ru - самый крупный в мире бесплатный архив песенных текстов, аккордов, табулатур и нот


The Razorbax - Something To Believe In - таба, видео

Регистрация Запомнить меня
Войти через:  Facebook Google Twitter Vk Yandex Mail.ru

The Razorbax - Something To Believe In - таба, видео

Печатать
Просмотров: 73
-------------------------------------------------------------------------------
                Something To Belive In - The Razorbax
-------------------------------------------------------------------------------
Bands Website: http://www.therazorbax.co.uk/
Tabbed by: Foxboron

Tuning: Standar


First tab!

Enjoi!

Intro
hit the chords until you hear the change :3
e|--------------|
B|--------------|
G|-------9---7--|
D|---7---9---7--|
A|---7---7---5--| x4
E|---5----------|

Verse:

e|--------------------|
B|--------------------|
G|--9-9--7-7-7-7-7-7--|
D|--9-9--7-7-7-7-7-7--|
A|--7-7--5-5-5-5-5-5--|
E|--------------------|

Pre-Chourse:

e|--------------------|
B|--------------------|
G|-------9~-----------|
D|--7-7~-9~-----------|
A|--7-7~-7~-----------|
E|--5-5~--------------|

Chourse:

(same as intro)
e|--------------|
B|--------------|
G|-------9---7--|
D|---7---9---7--|
A|---7---7---5--| x4
E|---5----------|

After Chourse:

e|--------------------|
B|--------------------|
G|--9-9~-7-7-7--------|
D|--9-9~-7-7-7-7-7-7--|
A|--7-7~-5-5-5-7-7-7--|
E|-------------5-5-5--|

before the verse starts

E|--------------------|
B|--------------------|
G|-------9~-----------|
D|--7-7~-9~-----------|
A|--7-7~-7~-----------|
E|--5-5~--------------|

Verse 2:

unable to tab this. but it should be the same CHORDS as the first verse.

Solo:
no tabs.. yet O.o

End:
e|--------------------|
B|--------------------|
G|--9~--7~------------|
D|--9~--7~--7~--------|
A|--7~--5~--7~--------|
E|----------5~--------|

************************************

| /   slide up
| \   slide down
| h   hammer-on
| p   pull-off
| ~   vibrato
| +   harmonic
| x   Mute note
| b   Bend
| pb  Pre-bend
| br  Bend release
| pbr Pre-bend release
| brb Bend release bend
Добавлено: 17.05.2012
Другие материалы по этой песне:
  • Аккорды и текст

Страница создана 17.05.2012
http://primanota.ru/the-razorbax/something-to-believe-in-chords.htm
Привет, Гость.
Предлагаем пройти революционный курс по гитаре.
Подарок от PrimaNota.Ru, забирай!